ISO-10303-21;
HEADER;
FILE_DESCRIPTION (( 'STEP AP203' ),
    '1' );
FILE_NAME ('961341.step',
    '2021-11-25T13:42:41',
    ( '' ),
    ( '' ),
    'SwSTEP 2.0',
    'SolidWorks 2019',
    '' );
FILE_SCHEMA (( 'CONFIG_CONTROL_DESIGN' ));
ENDSEC;

DATA;
#1 = PERSON_AND_ORGANIZATION_ROLE ( 'creator' ) ;
#2 = AXIS2_PLACEMENT_3D ( 'NONE', #40, #8, #187 ) ;
#3 = APPROVAL ( #136, 'UNSPECIFIED' ) ;
#4 = FACE_OUTER_BOUND ( 'NONE', #14, .T. ) ;
#5 = DIRECTION ( 'NONE',  ( -3.491481338843133355E-15, 1.224646799147353207E-16, -1.000000000000000000 ) ) ;
#6 = CARTESIAN_POINT ( 'NONE',  ( 1.316288464743861212E-13, -4.616918432785521081E-15, 37.69999999999999574 ) ) ;
#7 = CARTESIAN_POINT ( 'NONE',  ( 0.0000000000000000000, 0.0000000000000000000, 0.0000000000000000000 ) ) ;
#8 = DIRECTION ( 'NONE',  ( -3.491481338843133355E-15, 1.224646799147353207E-16, -1.000000000000000000 ) ) ;
#9 = LOCAL_TIME ( 14, 42, 41.00000000000000000, #127 ) ;
#10 = PERSON_AND_ORGANIZATION ( #134, #66 ) ;
#11 = PERSON_AND_ORGANIZATION_ROLE ( 'classification_officer' ) ;
#12 = DIRECTION ( 'NONE',  ( -4.275831445896958607E-31, -1.000000000000000000, -1.224646799147353207E-16 ) ) ;
#13 = DATE_AND_TIME ( #16, #166 ) ;
#14 = EDGE_LOOP ( 'NONE', ( #180 ) ) ;
#15 = AXIS2_PLACEMENT_3D ( 'NONE', #145, #188, #99 ) ;
#16 = CALENDAR_DATE ( 2021, 25, 11 ) ;
#17 = APPROVAL_PERSON_ORGANIZATION ( #154, #113, #179 ) ;
#18 = PERSON_AND_ORGANIZATION_ROLE ( 'creator' ) ;
#19 =( NAMED_UNIT ( * ) SI_UNIT ( $, .STERADIAN. ) SOLID_ANGLE_UNIT ( ) );
#20 = ADVANCED_FACE ( 'NONE', ( #149 ), #80, .F. ) ;
#21 = CC_DESIGN_PERSON_AND_ORGANIZATION_ASSIGNMENT ( #81, #101, ( #45 ) ) ;
#22 = DIRECTION ( 'NONE',  ( 0.0000000000000000000, 1.000000000000000000, 0.0000000000000000000 ) ) ;
#23 = CARTESIAN_POINT ( 'NONE',  ( 1.824254005033808212E-14, 1.124819836996389511E-32, 5.224871130596551616 ) ) ;
#24 = ADVANCED_FACE ( 'NONE', ( #47 ), #123, .T. ) ;
#25 = CONICAL_SURFACE ( 'NONE', #15, 1.499999999999996225, 0.2617993877991428575 ) ;
#26 = PERSON_AND_ORGANIZATION ( #134, #66 ) ;
#27 = EDGE_CURVE ( 'NONE', #75, #75, #93, .T. ) ;
#28 = PERSON_AND_ORGANIZATION ( #134, #66 ) ;
#29 = AXIS2_PLACEMENT_3D ( 'NONE', #59, #126, #195 ) ;
#30 = EDGE_LOOP ( 'NONE', ( #129 ) ) ;
#31 = ORIENTED_EDGE ( 'NONE', *, *, #63, .F. ) ;
#32 = DATE_TIME_ROLE ( 'classification_date' ) ;
#33 = CARTESIAN_POINT ( 'NONE',  ( 1.824254005033808212E-14, 1.499999999999995559, 5.224871130596551616 ) ) ;
#34 = PERSON_AND_ORGANIZATION_ROLE ( 'design_owner' ) ;
#35 = CIRCLE ( 'NONE', #65, 1.499999999999996225 ) ;
#36 = CYLINDRICAL_SURFACE ( 'NONE', #182, 1.499999999999998224 ) ;
#37 = DIRECTION ( 'NONE',  ( 0.0000000000000000000, 1.000000000000000000, 0.0000000000000000000 ) ) ;
#38 = DIRECTION ( 'NONE',  ( -4.275831445896958607E-31, -1.000000000000000000, -1.224646799147353207E-16 ) ) ;
#39 = PRODUCT_RELATED_PRODUCT_CATEGORY ( 'detail', '', ( #178 ) ) ;
#40 = CARTESIAN_POINT ( 'NONE',  ( 1.824254005033808212E-14, -6.398621706042479408E-16, 5.224871130596551616 ) ) ;
#41 = AXIS2_PLACEMENT_3D ( 'NONE', #100, #83, #61 ) ;
#42 = EDGE_LOOP ( 'NONE', ( #103 ) ) ;
#43 = CALENDAR_DATE ( 2021, 25, 11 ) ;
#44 = AXIS2_PLACEMENT_3D ( 'NONE', #183, #68, #133 ) ;
#45 = PRODUCT_DEFINITION_FORMATION_WITH_SPECIFIED_SOURCE ( 'ANY', '', #178, .NOT_KNOWN. ) ;
#46 = CC_DESIGN_DATE_AND_TIME_ASSIGNMENT ( #162, #117, ( #119 ) ) ;
#47 = FACE_OUTER_BOUND ( 'NONE', #177, .T. ) ;
#48 = DATE_AND_TIME ( #135, #121 ) ;
#49 = LOCAL_TIME ( 14, 42, 41.00000000000000000, #84 ) ;
#50 = PERSON_AND_ORGANIZATION ( #134, #66 ) ;
#51 = CALENDAR_DATE ( 2021, 25, 11 ) ;
#52 =( LENGTH_UNIT ( ) NAMED_UNIT ( * ) SI_UNIT ( .MILLI., .METRE. ) );
#53 = CC_DESIGN_APPROVAL ( #113, ( #197 ) ) ;
#54 = APPROVAL_DATE_TIME ( #13, #113 ) ;
#55 = DIRECTION ( 'NONE',  ( 0.0000000000000000000, 1.000000000000000000, 0.0000000000000000000 ) ) ;
#56 = ADVANCED_FACE ( 'NONE', ( #112, #79 ), #90, .T. ) ;
#57 = MANIFOLD_SOLID_BREP ( 'Corps-Déplacer/Copier1[1]', #169 ) ;
#58 = MANIFOLD_SOLID_BREP ( 'Corps-Déplacer/Copier1[2]', #107 ) ;
#59 = CARTESIAN_POINT ( 'NONE',  ( 1.326762908760390423E-13, 8.998558695971078593E-33, 38.00000000000000000 ) ) ;
#60 = COORDINATED_UNIVERSAL_TIME_OFFSET ( 1, 0, .AHEAD. ) ;
#61 = DIRECTION ( 'NONE',  ( 1.000000000000000000, 0.0000000000000000000, 0.0000000000000000000 ) ) ;
#62 = ORIENTED_EDGE ( 'NONE', *, *, #63, .T. ) ;
#63 = EDGE_CURVE ( 'NONE', #201, #201, #35, .T. ) ;
#64 = EDGE_LOOP ( 'NONE', ( #102 ) ) ;
#65 = AXIS2_PLACEMENT_3D ( 'NONE', #141, #159, #37 ) ;
#66 = ORGANIZATION ( 'UNSPECIFIED', 'UNSPECIFIED', '' ) ;
#67 = APPROVAL_STATUS ( 'not_yet_approved' ) ;
#68 = DIRECTION ( 'NONE',  ( 3.491481338843133355E-15, -1.224646799147353207E-16, 1.000000000000000000 ) ) ;
#69 = COORDINATED_UNIVERSAL_TIME_OFFSET ( 1, 0, .AHEAD. ) ;
#70 = CARTESIAN_POINT ( 'NONE',  ( 1.182959891489475848E-32, 0.1000000000000000888, 3.388131789017201356E-18 ) ) ;
#71 = COORDINATED_UNIVERSAL_TIME_OFFSET ( 1, 0, .AHEAD. ) ;
#72 = DIRECTION ( 'NONE',  ( -3.491481338843133355E-15, 1.224646799147353207E-16, -1.000000000000000000 ) ) ;
#73 = AXIS2_PLACEMENT_3D ( 'NONE', #23, #91, #12 ) ;
#74 = EDGE_CURVE ( 'NONE', #165, #165, #96, .T. ) ;
#75 = VERTEX_POINT ( 'NONE', #70 ) ;
#76 = PLANE ( 'NONE',  #128 ) ;
#77 = CC_DESIGN_PERSON_AND_ORGANIZATION_ASSIGNMENT ( #28, #18, ( #119 ) ) ;
#78 = CC_DESIGN_SECURITY_CLASSIFICATION ( #197, ( #45 ) ) ;
#79 = FACE_BOUND ( 'NONE', #64, .T. ) ;
#80 = PLANE ( 'NONE',  #29 ) ;
#81 = PERSON_AND_ORGANIZATION ( #134, #66 ) ;
#82 = CARTESIAN_POINT ( 'NONE',  ( -3.092871554407486837E-32, 1.084833307610927940E-33, -8.858336202456342117E-18 ) ) ;
#83 = DIRECTION ( 'NONE',  ( 0.0000000000000000000, 0.0000000000000000000, 1.000000000000000000 ) ) ;
#84 = COORDINATED_UNIVERSAL_TIME_OFFSET ( 1, 0, .AHEAD. ) ;
#85 = EDGE_LOOP ( 'NONE', ( #130 ) ) ;
#86 = CARTESIAN_POINT ( 'NONE',  ( 1.326762908760390423E-13, -4.653657836759941941E-15, 38.00000000000000000 ) ) ;
#87 = CC_DESIGN_PERSON_AND_ORGANIZATION_ASSIGNMENT ( #50, #34, ( #178 ) ) ;
#88 = APPROVAL_PERSON_ORGANIZATION ( #26, #155, #176 ) ;
#89 = PERSON_AND_ORGANIZATION ( #134, #66 ) ;
#90 = CONICAL_SURFACE ( 'NONE', #131, 1.200000000000000178, 0.7853981633974457255 ) ;
#91 = DIRECTION ( 'NONE',  ( 3.491481338843133355E-15, -1.224646799147353207E-16, 1.000000000000000000 ) ) ;
#92 = DATE_AND_TIME ( #51, #49 ) ;
#93 = CIRCLE ( 'NONE', #164, 0.1000000000000000888 ) ;
#94 = AXIS2_PLACEMENT_3D ( 'NONE', #6, #186, #22 ) ;
#95 = FACE_BOUND ( 'NONE', #30, .T. ) ;
#96 = CIRCLE ( 'NONE', #2, 1.499999999999996225 ) ;
#97 = LOCAL_TIME ( 14, 42, 41.00000000000000000, #60 ) ;
#98 = ADVANCED_BREP_SHAPE_REPRESENTATION ( '961341', ( #57, #58, #41 ), #143 ) ;
#99 = DIRECTION ( 'NONE',  ( 0.0000000000000000000, -1.000000000000000000, 0.0000000000000000000 ) ) ;
#100 = CARTESIAN_POINT ( 'NONE',  ( 0.0000000000000000000, 0.0000000000000000000, 0.0000000000000000000 ) ) ;
#101 = PERSON_AND_ORGANIZATION_ROLE ( 'design_supplier' ) ;
#102 = ORIENTED_EDGE ( 'NONE', *, *, #152, .T. ) ;
#103 = ORIENTED_EDGE ( 'NONE', *, *, #27, .T. ) ;
#104 = APPLICATION_PROTOCOL_DEFINITION ( 'international standard', 'config_control_design', 1994, #116 ) ;
#105 = AXIS2_PLACEMENT_3D ( 'NONE', #86, #5, #158 ) ;
#106 = SECURITY_CLASSIFICATION_LEVEL ( 'unclassified' ) ;
#107 = CLOSED_SHELL ( 'NONE', ( #109, #125, #24 ) ) ;
#108 = FACE_OUTER_BOUND ( 'NONE', #163, .T. ) ;
#109 = ADVANCED_FACE ( 'NONE', ( #168 ), #76, .F. ) ;
#110 = DIRECTION ( 'NONE',  ( 4.275831445896958607E-31, 1.000000000000000000, 1.224646799147353207E-16 ) ) ;
#111 = FACE_OUTER_BOUND ( 'NONE', #192, .T. ) ;
#112 = FACE_OUTER_BOUND ( 'NONE', #203, .T. ) ;
#113 = APPROVAL ( #67, 'UNSPECIFIED' ) ;
#114 = DESIGN_CONTEXT ( 'detailed design', #116, 'design' ) ;
#115 = DATE_AND_TIME ( #150, #97 ) ;
#116 = APPLICATION_CONTEXT ( 'configuration controlled 3d designs of mechanical parts and assemblies' ) ;
#117 = DATE_TIME_ROLE ( 'creation_date' ) ;
#118 = ORIENTED_EDGE ( 'NONE', *, *, #74, .T. ) ;
#119 = PRODUCT_DEFINITION ( 'UNKNOWN', '', #45, #114 ) ;
#120 = ORIENTED_EDGE ( 'NONE', *, *, #198, .T. ) ;
#121 = LOCAL_TIME ( 14, 42, 41.00000000000000000, #69 ) ;
#122 = SHAPE_DEFINITION_REPRESENTATION ( #173, #98 ) ;
#123 = PLANE ( 'NONE',  #44 ) ;
#124 = CARTESIAN_POINT ( 'NONE',  ( 1.316288464743861212E-13, 1.499999999999995781, 37.69999999999999574 ) ) ;
#125 = ADVANCED_FACE ( 'NONE', ( #95, #160 ), #25, .T. ) ;
#126 = DIRECTION ( 'NONE',  ( -3.491481338843133355E-15, 1.224646799147353207E-16, -1.000000000000000000 ) ) ;
#127 = COORDINATED_UNIVERSAL_TIME_OFFSET ( 1, 0, .AHEAD. ) ;
#128 = AXIS2_PLACEMENT_3D ( 'NONE', #157, #172, #38 ) ;
#129 = ORIENTED_EDGE ( 'NONE', *, *, #27, .F. ) ;
#130 = ORIENTED_EDGE ( 'NONE', *, *, #152, .F. ) ;
#131 = AXIS2_PLACEMENT_3D ( 'NONE', #185, #174, #55 ) ;
#132 = CC_DESIGN_DATE_AND_TIME_ASSIGNMENT ( #92, #32, ( #197 ) ) ;
#133 = DIRECTION ( 'NONE',  ( -4.275831445896958607E-31, -1.000000000000000000, -1.224646799147353207E-16 ) ) ;
#134 = PERSON ( 'UNSPECIFIED', 'UNSPECIFIED', 'UNSPECIFIED', ('UNSPECIFIED'), ('UNSPECIFIED'), ('UNSPECIFIED') ) ;
#135 = CALENDAR_DATE ( 2021, 25, 11 ) ;
#136 = APPROVAL_STATUS ( 'not_yet_approved' ) ;
#137 =( NAMED_UNIT ( * ) PLANE_ANGLE_UNIT ( ) SI_UNIT ( $, .RADIAN. ) );
#138 = VERTEX_POINT ( 'NONE', #124 ) ;
#139 = CC_DESIGN_PERSON_AND_ORGANIZATION_ASSIGNMENT ( #10, #1, ( #45 ) ) ;
#140 = CARTESIAN_POINT ( 'NONE',  ( 1.824254005033808212E-14, 1.499999999999995559, 5.224871130596551616 ) ) ;
#141 = CARTESIAN_POINT ( 'NONE',  ( 1.824254005033808212E-14, -6.398621706042479408E-16, 5.224871130596551616 ) ) ;
#142 = ADVANCED_FACE ( 'NONE', ( #111 ), #171, .F. ) ;
#143 =( GEOMETRIC_REPRESENTATION_CONTEXT ( 3 ) GLOBAL_UNCERTAINTY_ASSIGNED_CONTEXT ( ( #194 ) ) GLOBAL_UNIT_ASSIGNED_CONTEXT ( ( #52, #137, #19 ) ) REPRESENTATION_CONTEXT ( 'NONE', 'WORKASPACE' ) );
#144 = DIRECTION ( 'NONE',  ( -3.491481338843133355E-15, 1.224646799147353207E-16, -1.000000000000000000 ) ) ;
#145 = CARTESIAN_POINT ( 'NONE',  ( 1.824254005033808212E-14, -6.398621706042479408E-16, 5.224871130596551616 ) ) ;
#146 = APPROVAL_PERSON_ORGANIZATION ( #89, #3, #190 ) ;
#147 = EDGE_LOOP ( 'NONE', ( #62 ) ) ;
#148 = ORIENTED_EDGE ( 'NONE', *, *, #198, .F. ) ;
#149 = FACE_OUTER_BOUND ( 'NONE', #85, .T. ) ;
#150 = CALENDAR_DATE ( 2021, 25, 11 ) ;
#151 = MECHANICAL_CONTEXT ( 'NONE', #200, 'mechanical' ) ;
#152 = EDGE_CURVE ( 'NONE', #199, #199, #175, .T. ) ;
#153 = CARTESIAN_POINT ( 'NONE',  ( 1.326762908760390423E-13, 1.199999999999995515, 38.00000000000000000 ) ) ;
#154 = PERSON_AND_ORGANIZATION ( #134, #66 ) ;
#155 = APPROVAL ( #181, 'UNSPECIFIED' ) ;
#156 = CIRCLE ( 'NONE', #94, 1.500000000000000222 ) ;
#157 = CARTESIAN_POINT ( 'NONE',  ( -1.546435777203743418E-32, 5.424166538054639698E-34, -4.429168101228171058E-18 ) ) ;
#158 = DIRECTION ( 'NONE',  ( 0.0000000000000000000, 1.000000000000000000, 0.0000000000000000000 ) ) ;
#159 = DIRECTION ( 'NONE',  ( -3.491481338843133355E-15, 1.224646799147353207E-16, -1.000000000000000000 ) ) ;
#160 = FACE_OUTER_BOUND ( 'NONE', #147, .T. ) ;
#161 = PERSON_AND_ORGANIZATION ( #134, #66 ) ;
#162 = DATE_AND_TIME ( #43, #9 ) ;
#163 = EDGE_LOOP ( 'NONE', ( #120 ) ) ;
#164 = AXIS2_PLACEMENT_3D ( 'NONE', #82, #144, #202 ) ;
#165 = VERTEX_POINT ( 'NONE', #33 ) ;
#166 = LOCAL_TIME ( 14, 42, 41.00000000000000000, #71 ) ;
#167 = CC_DESIGN_PERSON_AND_ORGANIZATION_ASSIGNMENT ( #161, #11, ( #197 ) ) ;
#168 = FACE_OUTER_BOUND ( 'NONE', #42, .T. ) ;
#169 = CLOSED_SHELL ( 'NONE', ( #142, #193, #56, #20 ) ) ;
#170 = CC_DESIGN_APPROVAL ( #3, ( #119 ) ) ;
#171 = PLANE ( 'NONE',  #73 ) ;
#172 = DIRECTION ( 'NONE',  ( 3.491481338843133355E-15, -1.224646799147353207E-16, 1.000000000000000000 ) ) ;
#173 = PRODUCT_DEFINITION_SHAPE ( 'NONE', 'NONE',  #119 ) ;
#174 = DIRECTION ( 'NONE',  ( -3.491481338843133355E-15, 1.224646799147353207E-16, -1.000000000000000000 ) ) ;
#175 = CIRCLE ( 'NONE', #105, 1.200000000000000178 ) ;
#176 = APPROVAL_ROLE ( '' ) ;
#177 = EDGE_LOOP ( 'NONE', ( #31 ) ) ;
#178 = PRODUCT ( '961341', '961341', '', ( #151 ) ) ;
#179 = APPROVAL_ROLE ( '' ) ;
#180 = ORIENTED_EDGE ( 'NONE', *, *, #74, .F. ) ;
#181 = APPROVAL_STATUS ( 'not_yet_approved' ) ;
#182 = AXIS2_PLACEMENT_3D ( 'NONE', #7, #72, #110 ) ;
#183 = CARTESIAN_POINT ( 'NONE',  ( 1.824254005033808212E-14, 1.124819836996389511E-32, 5.224871130596551616 ) ) ;
#184 = APPROVAL_DATE_TIME ( #48, #155 ) ;
#185 = CARTESIAN_POINT ( 'NONE',  ( 1.326762908760390423E-13, -4.653657836759941941E-15, 38.00000000000000000 ) ) ;
#186 = DIRECTION ( 'NONE',  ( -3.491481338843133355E-15, 1.224646799147353207E-16, -1.000000000000000000 ) ) ;
#187 = DIRECTION ( 'NONE',  ( 0.0000000000000000000, 1.000000000000000000, 0.0000000000000000000 ) ) ;
#188 = DIRECTION ( 'NONE',  ( 3.491481338843133355E-15, -1.224646799147353207E-16, 1.000000000000000000 ) ) ;
#189 = CC_DESIGN_APPROVAL ( #155, ( #45 ) ) ;
#190 = APPROVAL_ROLE ( '' ) ;
#191 = APPLICATION_PROTOCOL_DEFINITION ( 'international standard', 'config_control_design', 1994, #200 ) ;
#192 = EDGE_LOOP ( 'NONE', ( #118 ) ) ;
#193 = ADVANCED_FACE ( 'NONE', ( #4, #108 ), #36, .T. ) ;
#194 = UNCERTAINTY_MEASURE_WITH_UNIT (LENGTH_MEASURE( 1.000000000000000082E-05 ), #52, 'distance_accuracy_value', 'NONE');
#195 = DIRECTION ( 'NONE',  ( 4.275831445896958607E-31, 1.000000000000000000, 1.224646799147353207E-16 ) ) ;
#196 = APPROVAL_DATE_TIME ( #115, #3 ) ;
#197 = SECURITY_CLASSIFICATION ( '', '', #106 ) ;
#198 = EDGE_CURVE ( 'NONE', #138, #138, #156, .T. ) ;
#199 = VERTEX_POINT ( 'NONE', #153 ) ;
#200 = APPLICATION_CONTEXT ( 'configuration controlled 3d designs of mechanical parts and assemblies' ) ;
#201 = VERTEX_POINT ( 'NONE', #140 ) ;
#202 = DIRECTION ( 'NONE',  ( 4.275831445896958607E-31, 1.000000000000000000, 1.224646799147353207E-16 ) ) ;
#203 = EDGE_LOOP ( 'NONE', ( #148 ) ) ;
ENDSEC;
END-ISO-10303-21;
