ISO-10303-21;
HEADER;
FILE_DESCRIPTION (( 'STEP AP203' ),
    '1' );
FILE_NAME ('961340.step',
    '2021-11-25T13:42:41',
    ( '' ),
    ( '' ),
    'SwSTEP 2.0',
    'SolidWorks 2019',
    '' );
FILE_SCHEMA (( 'CONFIG_CONTROL_DESIGN' ));
ENDSEC;

DATA;
#1 = APPROVAL_ROLE ( '' ) ;
#2 =( GEOMETRIC_REPRESENTATION_CONTEXT ( 3 ) GLOBAL_UNCERTAINTY_ASSIGNED_CONTEXT ( ( #4 ) ) GLOBAL_UNIT_ASSIGNED_CONTEXT ( ( #75, #51, #13 ) ) REPRESENTATION_CONTEXT ( 'NONE', 'WORKASPACE' ) );
#3 = DIRECTION ( 'NONE',  ( -3.491481338843133355E-15, 1.224646799147353207E-16, -1.000000000000000000 ) ) ;
#4 = UNCERTAINTY_MEASURE_WITH_UNIT (LENGTH_MEASURE( 1.000000000000000082E-05 ), #75, 'distance_accuracy_value', 'NONE');
#5 = COORDINATED_UNIVERSAL_TIME_OFFSET ( 1, 0, .AHEAD. ) ;
#6 = LOCAL_TIME ( 14, 42, 40.00000000000000000, #118 ) ;
#7 = DIRECTION ( 'NONE',  ( 4.275831445896958607E-31, 1.000000000000000000, 1.224646799147353207E-16 ) ) ;
#8 = APPROVAL ( #160, 'UNSPECIFIED' ) ;
#9 = DIRECTION ( 'NONE',  ( -3.491481338843133355E-15, 1.224646799147353207E-16, -1.000000000000000000 ) ) ;
#10 = ORIENTED_EDGE ( 'NONE', *, *, #38, .T. ) ;
#11 = DIRECTION ( 'NONE',  ( 3.491481338843133355E-15, -1.224646799147353207E-16, 1.000000000000000000 ) ) ;
#12 = AXIS2_PLACEMENT_3D ( 'NONE', #117, #58, #44 ) ;
#13 =( NAMED_UNIT ( * ) SI_UNIT ( $, .STERADIAN. ) SOLID_ANGLE_UNIT ( ) );
#14 = APPROVAL ( #112, 'UNSPECIFIED' ) ;
#15 = DESIGN_CONTEXT ( 'detailed design', #176, 'design' ) ;
#16 = DIRECTION ( 'NONE',  ( -4.275831445896958607E-31, -1.000000000000000000, -1.224646799147353207E-16 ) ) ;
#17 = PERSON ( 'UNSPECIFIED', 'UNSPECIFIED', 'UNSPECIFIED', ('UNSPECIFIED'), ('UNSPECIFIED'), ('UNSPECIFIED') ) ;
#18 = MANIFOLD_SOLID_BREP ( 'Corps-Déplacer/Copier1[1]', #105 ) ;
#19 = APPROVAL_PERSON_ORGANIZATION ( #40, #14, #21 ) ;
#20 = APPROVAL_STATUS ( 'not_yet_approved' ) ;
#21 = APPROVAL_ROLE ( '' ) ;
#22 = CARTESIAN_POINT ( 'NONE',  ( 1.316288464743861212E-13, -4.616918432785521081E-15, 37.69999999999999574 ) ) ;
#23 = LOCAL_TIME ( 14, 42, 40.00000000000000000, #90 ) ;
#24 = PLANE ( 'NONE',  #27 ) ;
#25 = PERSON_AND_ORGANIZATION_ROLE ( 'design_owner' ) ;
#26 = FACE_OUTER_BOUND ( 'NONE', #63, .T. ) ;
#27 = AXIS2_PLACEMENT_3D ( 'NONE', #41, #46, #7 ) ;
#28 = APPROVAL_ROLE ( '' ) ;
#29 = COORDINATED_UNIVERSAL_TIME_OFFSET ( 1, 0, .AHEAD. ) ;
#30 = CYLINDRICAL_SURFACE ( 'NONE', #111, 1.499999999999998224 ) ;
#31 = PLANE ( 'NONE',  #91 ) ;
#32 = MANIFOLD_SOLID_BREP ( 'Corps-Déplacer/Copier1[2]', #125 ) ;
#33 = CARTESIAN_POINT ( 'NONE',  ( 1.326762908760390423E-13, -4.653657836759941941E-15, 38.00000000000000000 ) ) ;
#34 = ADVANCED_FACE ( 'NONE', ( #151, #110 ), #170, .T. ) ;
#35 = EDGE_CURVE ( 'NONE', #143, #143, #86, .T. ) ;
#36 = APPROVAL_DATE_TIME ( #189, #14 ) ;
#37 = DATE_AND_TIME ( #57, #186 ) ;
#38 = EDGE_CURVE ( 'NONE', #68, #68, #88, .T. ) ;
#39 = CARTESIAN_POINT ( 'NONE',  ( 1.326762908760390423E-13, 1.199999999999995515, 38.00000000000000000 ) ) ;
#40 = PERSON_AND_ORGANIZATION ( #17, #54 ) ;
#41 = CARTESIAN_POINT ( 'NONE',  ( 1.326762908760390423E-13, 8.998558695971078593E-33, 38.00000000000000000 ) ) ;
#42 = DIRECTION ( 'NONE',  ( 0.0000000000000000000, 1.000000000000000000, 0.0000000000000000000 ) ) ;
#43 = SECURITY_CLASSIFICATION ( '', '', #181 ) ;
#44 = DIRECTION ( 'NONE',  ( 0.0000000000000000000, 1.000000000000000000, 0.0000000000000000000 ) ) ;
#45 = PERSON_AND_ORGANIZATION ( #17, #54 ) ;
#46 = DIRECTION ( 'NONE',  ( -3.491481338843133355E-15, 1.224646799147353207E-16, -1.000000000000000000 ) ) ;
#47 = DIRECTION ( 'NONE',  ( 4.275831445896958607E-31, 1.000000000000000000, 1.224646799147352961E-16 ) ) ;
#48 = LOCAL_TIME ( 14, 42, 40.00000000000000000, #5 ) ;
#49 = ORIENTED_EDGE ( 'NONE', *, *, #201, .T. ) ;
#50 = CC_DESIGN_PERSON_AND_ORGANIZATION_ASSIGNMENT ( #168, #25, ( #126 ) ) ;
#51 =( NAMED_UNIT ( * ) PLANE_ANGLE_UNIT ( ) SI_UNIT ( $, .RADIAN. ) );
#52 = CC_DESIGN_APPROVAL ( #129, ( #115 ) ) ;
#53 = CC_DESIGN_PERSON_AND_ORGANIZATION_ASSIGNMENT ( #64, #103, ( #43 ) ) ;
#54 = ORGANIZATION ( 'UNSPECIFIED', 'UNSPECIFIED', '' ) ;
#55 = VERTEX_POINT ( 'NONE', #39 ) ;
#56 = ORIENTED_EDGE ( 'NONE', *, *, #190, .F. ) ;
#57 = CALENDAR_DATE ( 2021, 25, 11 ) ;
#58 = DIRECTION ( 'NONE',  ( -3.491481338843133355E-15, 1.224646799147353207E-16, -1.000000000000000000 ) ) ;
#59 = CARTESIAN_POINT ( 'NONE',  ( 1.856829969409412347E-14, 1.124819836996389511E-32, 5.318172400785776688 ) ) ;
#60 = AXIS2_PLACEMENT_3D ( 'NONE', #22, #3, #113 ) ;
#61 = PRODUCT_DEFINITION ( 'UNKNOWN', '', #115, #15 ) ;
#62 = APPROVAL_DATE_TIME ( #195, #8 ) ;
#63 = EDGE_LOOP ( 'NONE', ( #142 ) ) ;
#64 = PERSON_AND_ORGANIZATION ( #17, #54 ) ;
#65 = CARTESIAN_POINT ( 'NONE',  ( 1.316288464743861212E-13, 1.499999999999995781, 37.69999999999999574 ) ) ;
#66 = CC_DESIGN_PERSON_AND_ORGANIZATION_ASSIGNMENT ( #45, #154, ( #61 ) ) ;
#67 = ORIENTED_EDGE ( 'NONE', *, *, #35, .F. ) ;
#68 = VERTEX_POINT ( 'NONE', #175 ) ;
#69 = CC_DESIGN_PERSON_AND_ORGANIZATION_ASSIGNMENT ( #152, #116, ( #115 ) ) ;
#70 = ADVANCED_BREP_SHAPE_REPRESENTATION ( '961340', ( #18, #32, #127 ), #2 ) ;
#71 = MECHANICAL_CONTEXT ( 'NONE', #185, 'mechanical' ) ;
#72 = ADVANCED_FACE ( 'NONE', ( #109 ), #182, .F. ) ;
#73 = CC_DESIGN_APPROVAL ( #8, ( #61 ) ) ;
#74 = CALENDAR_DATE ( 2021, 25, 11 ) ;
#75 =( LENGTH_UNIT ( ) NAMED_UNIT ( * ) SI_UNIT ( .MILLI., .METRE. ) );
#76 = ADVANCED_FACE ( 'NONE', ( #93 ), #108, .T. ) ;
#77 = AXIS2_PLACEMENT_3D ( 'NONE', #59, #169, #79 ) ;
#78 = PERSON_AND_ORGANIZATION ( #17, #54 ) ;
#79 = DIRECTION ( 'NONE',  ( -4.275831445896958607E-31, -1.000000000000000000, -1.224646799147353207E-16 ) ) ;
#80 = EDGE_LOOP ( 'NONE', ( #97 ) ) ;
#81 = PERSON_AND_ORGANIZATION ( #17, #54 ) ;
#82 = VERTEX_POINT ( 'NONE', #65 ) ;
#83 = ORIENTED_EDGE ( 'NONE', *, *, #38, .F. ) ;
#84 = CONICAL_SURFACE ( 'NONE', #177, 1.499999999999996225, 0.2617993877991428020 ) ;
#85 = CARTESIAN_POINT ( 'NONE',  ( 0.0000000000000000000, 0.0000000000000000000, 0.0000000000000000000 ) ) ;
#86 = CIRCLE ( 'NONE', #131, 1.499999999999996225 ) ;
#87 = ADVANCED_FACE ( 'NONE', ( #107, #26 ), #84, .T. ) ;
#88 = CIRCLE ( 'NONE', #12, 1.499999999999996225 ) ;
#89 = PERSON_AND_ORGANIZATION ( #17, #54 ) ;
#90 = COORDINATED_UNIVERSAL_TIME_OFFSET ( 1, 0, .AHEAD. ) ;
#91 = AXIS2_PLACEMENT_3D ( 'NONE', #98, #11, #16 ) ;
#92 = DIRECTION ( 'NONE',  ( 0.0000000000000000000, 0.0000000000000000000, 1.000000000000000000 ) ) ;
#93 = FACE_OUTER_BOUND ( 'NONE', #197, .T. ) ;
#94 = CARTESIAN_POINT ( 'NONE',  ( 1.856829969409412347E-14, -6.512882807936096433E-16, 5.318172400785776688 ) ) ;
#95 = AXIS2_PLACEMENT_3D ( 'NONE', #119, #155, #122 ) ;
#96 = CARTESIAN_POINT ( 'NONE',  ( 0.0000000000000000000, 0.0000000000000000000, 0.0000000000000000000 ) ) ;
#97 = ORIENTED_EDGE ( 'NONE', *, *, #161, .F. ) ;
#98 = CARTESIAN_POINT ( 'NONE',  ( -1.603436792211359587E-32, 5.624099184981966029E-34, -4.592425496802574373E-18 ) ) ;
#99 = APPLICATION_PROTOCOL_DEFINITION ( 'international standard', 'config_control_design', 1994, #185 ) ;
#100 = AXIS2_PLACEMENT_3D ( 'NONE', #159, #144, #47 ) ;
#101 = EDGE_LOOP ( 'NONE', ( #10 ) ) ;
#102 = SHAPE_DEFINITION_REPRESENTATION ( #199, #70 ) ;
#103 = PERSON_AND_ORGANIZATION_ROLE ( 'classification_officer' ) ;
#104 = CC_DESIGN_PERSON_AND_ORGANIZATION_ASSIGNMENT ( #89, #135, ( #115 ) ) ;
#105 = CLOSED_SHELL ( 'NONE', ( #72, #134, #34, #114 ) ) ;
#106 = CIRCLE ( 'NONE', #200, 1.200000000000000178 ) ;
#107 = FACE_BOUND ( 'NONE', #140, .T. ) ;
#108 = PLANE ( 'NONE',  #203 ) ;
#109 = FACE_OUTER_BOUND ( 'NONE', #101, .T. ) ;
#110 = FACE_BOUND ( 'NONE', #128, .T. ) ;
#111 = AXIS2_PLACEMENT_3D ( 'NONE', #96, #9, #164 ) ;
#112 = APPROVAL_STATUS ( 'not_yet_approved' ) ;
#113 = DIRECTION ( 'NONE',  ( 0.0000000000000000000, 1.000000000000000000, 0.0000000000000000000 ) ) ;
#114 = ADVANCED_FACE ( 'NONE', ( #167 ), #24, .F. ) ;
#115 = PRODUCT_DEFINITION_FORMATION_WITH_SPECIFIED_SOURCE ( 'ANY', '', #126, .NOT_KNOWN. ) ;
#116 = PERSON_AND_ORGANIZATION_ROLE ( 'design_supplier' ) ;
#117 = CARTESIAN_POINT ( 'NONE',  ( 1.856829969409412347E-14, -6.512882807936096433E-16, 5.318172400785776688 ) ) ;
#118 = COORDINATED_UNIVERSAL_TIME_OFFSET ( 1, 0, .AHEAD. ) ;
#119 = CARTESIAN_POINT ( 'NONE',  ( 1.326762908760390423E-13, -4.653657836759941941E-15, 38.00000000000000000 ) ) ;
#120 = DIRECTION ( 'NONE',  ( 1.000000000000000000, 0.0000000000000000000, 0.0000000000000000000 ) ) ;
#121 = EDGE_LOOP ( 'NONE', ( #173 ) ) ;
#122 = DIRECTION ( 'NONE',  ( 0.0000000000000000000, 1.000000000000000000, 0.0000000000000000000 ) ) ;
#123 = EDGE_LOOP ( 'NONE', ( #83 ) ) ;
#124 = DIRECTION ( 'NONE',  ( 3.491481338843133355E-15, -1.224646799147353207E-16, 1.000000000000000000 ) ) ;
#125 = CLOSED_SHELL ( 'NONE', ( #192, #87, #76 ) ) ;
#126 = PRODUCT ( '961340', '961340', '', ( #71 ) ) ;
#127 = AXIS2_PLACEMENT_3D ( 'NONE', #85, #92, #120 ) ;
#128 = EDGE_LOOP ( 'NONE', ( #49 ) ) ;
#129 = APPROVAL ( #20, 'UNSPECIFIED' ) ;
#130 = FACE_OUTER_BOUND ( 'NONE', #121, .T. ) ;
#131 = AXIS2_PLACEMENT_3D ( 'NONE', #194, #180, #42 ) ;
#132 = CALENDAR_DATE ( 2021, 25, 11 ) ;
#133 = CC_DESIGN_SECURITY_CLASSIFICATION ( #43, ( #115 ) ) ;
#134 = ADVANCED_FACE ( 'NONE', ( #137, #172 ), #30, .T. ) ;
#135 = PERSON_AND_ORGANIZATION_ROLE ( 'creator' ) ;
#136 = CALENDAR_DATE ( 2021, 25, 11 ) ;
#137 = FACE_OUTER_BOUND ( 'NONE', #123, .T. ) ;
#138 = COORDINATED_UNIVERSAL_TIME_OFFSET ( 1, 0, .AHEAD. ) ;
#139 = DATE_TIME_ROLE ( 'classification_date' ) ;
#140 = EDGE_LOOP ( 'NONE', ( #56 ) ) ;
#141 = CIRCLE ( 'NONE', #60, 1.500000000000000222 ) ;
#142 = ORIENTED_EDGE ( 'NONE', *, *, #35, .T. ) ;
#143 = VERTEX_POINT ( 'NONE', #202 ) ;
#144 = DIRECTION ( 'NONE',  ( -3.491481338843133355E-15, 1.224646799147353207E-16, -1.000000000000000000 ) ) ;
#145 = PRODUCT_RELATED_PRODUCT_CATEGORY ( 'detail', '', ( #126 ) ) ;
#146 = CC_DESIGN_APPROVAL ( #14, ( #43 ) ) ;
#147 = APPLICATION_PROTOCOL_DEFINITION ( 'international standard', 'config_control_design', 1994, #176 ) ;
#148 = ORIENTED_EDGE ( 'NONE', *, *, #161, .T. ) ;
#149 = DIRECTION ( 'NONE',  ( -4.275831445896958607E-31, -1.000000000000000000, -1.224646799147353207E-16 ) ) ;
#150 = LOCAL_TIME ( 14, 42, 40.00000000000000000, #29 ) ;
#151 = FACE_OUTER_BOUND ( 'NONE', #80, .T. ) ;
#152 = PERSON_AND_ORGANIZATION ( #17, #54 ) ;
#153 = DIRECTION ( 'NONE',  ( 0.0000000000000000000, -1.000000000000000000, 0.0000000000000000000 ) ) ;
#154 = PERSON_AND_ORGANIZATION_ROLE ( 'creator' ) ;
#155 = DIRECTION ( 'NONE',  ( -3.491481338843133355E-15, 1.224646799147353207E-16, -1.000000000000000000 ) ) ;
#156 = EDGE_LOOP ( 'NONE', ( #148 ) ) ;
#157 = DIRECTION ( 'NONE',  ( -3.491481338843133355E-15, 1.224646799147353207E-16, -1.000000000000000000 ) ) ;
#158 = CC_DESIGN_DATE_AND_TIME_ASSIGNMENT ( #37, #198, ( #61 ) ) ;
#159 = CARTESIAN_POINT ( 'NONE',  ( -3.206873584422719174E-32, 1.124819836996393206E-33, -9.184850993605148746E-18 ) ) ;
#160 = APPROVAL_STATUS ( 'not_yet_approved' ) ;
#161 = EDGE_CURVE ( 'NONE', #82, #82, #141, .T. ) ;
#162 = APPROVAL_PERSON_ORGANIZATION ( #78, #8, #28 ) ;
#163 = DATE_AND_TIME ( #74, #6 ) ;
#164 = DIRECTION ( 'NONE',  ( 4.275831445896958607E-31, 1.000000000000000000, 1.224646799147353207E-16 ) ) ;
#165 = APPROVAL_DATE_TIME ( #163, #129 ) ;
#166 = APPROVAL_PERSON_ORGANIZATION ( #81, #129, #1 ) ;
#167 = FACE_OUTER_BOUND ( 'NONE', #171, .T. ) ;
#168 = PERSON_AND_ORGANIZATION ( #17, #54 ) ;
#169 = DIRECTION ( 'NONE',  ( 3.491481338843133355E-15, -1.224646799147353207E-16, 1.000000000000000000 ) ) ;
#170 = CONICAL_SURFACE ( 'NONE', #95, 1.200000000000000178, 0.7853981633974457255 ) ;
#171 = EDGE_LOOP ( 'NONE', ( #188 ) ) ;
#172 = FACE_OUTER_BOUND ( 'NONE', #156, .T. ) ;
#173 = ORIENTED_EDGE ( 'NONE', *, *, #190, .T. ) ;
#174 = CARTESIAN_POINT ( 'NONE',  ( 0.0000000000000000000, 0.07500000000000001110, 0.0000000000000000000 ) ) ;
#175 = CARTESIAN_POINT ( 'NONE',  ( 1.856829969409412347E-14, 1.499999999999995559, 5.318172400785776688 ) ) ;
#176 = APPLICATION_CONTEXT ( 'configuration controlled 3d designs of mechanical parts and assemblies' ) ;
#177 = AXIS2_PLACEMENT_3D ( 'NONE', #94, #179, #153 ) ;
#178 = DATE_AND_TIME ( #183, #150 ) ;
#179 = DIRECTION ( 'NONE',  ( 3.491481338843133355E-15, -1.224646799147353207E-16, 1.000000000000000000 ) ) ;
#180 = DIRECTION ( 'NONE',  ( -3.491481338843133355E-15, 1.224646799147353207E-16, -1.000000000000000000 ) ) ;
#181 = SECURITY_CLASSIFICATION_LEVEL ( 'unclassified' ) ;
#182 = PLANE ( 'NONE',  #77 ) ;
#183 = CALENDAR_DATE ( 2021, 25, 11 ) ;
#184 = VERTEX_POINT ( 'NONE', #174 ) ;
#185 = APPLICATION_CONTEXT ( 'configuration controlled 3d designs of mechanical parts and assemblies' ) ;
#186 = LOCAL_TIME ( 14, 42, 40.00000000000000000, #138 ) ;
#187 = DIRECTION ( 'NONE',  ( 0.0000000000000000000, 1.000000000000000000, 0.0000000000000000000 ) ) ;
#188 = ORIENTED_EDGE ( 'NONE', *, *, #201, .F. ) ;
#189 = DATE_AND_TIME ( #132, #23 ) ;
#190 = EDGE_CURVE ( 'NONE', #184, #184, #191, .T. ) ;
#191 = CIRCLE ( 'NONE', #100, 0.07500000000000001110 ) ;
#192 = ADVANCED_FACE ( 'NONE', ( #130 ), #31, .F. ) ;
#193 = CC_DESIGN_DATE_AND_TIME_ASSIGNMENT ( #178, #139, ( #43 ) ) ;
#194 = CARTESIAN_POINT ( 'NONE',  ( 1.856829969409412347E-14, -6.512882807936096433E-16, 5.318172400785776688 ) ) ;
#195 = DATE_AND_TIME ( #136, #48 ) ;
#196 = CARTESIAN_POINT ( 'NONE',  ( 1.856829969409412347E-14, 1.124819836996389511E-32, 5.318172400785776688 ) ) ;
#197 = EDGE_LOOP ( 'NONE', ( #67 ) ) ;
#198 = DATE_TIME_ROLE ( 'creation_date' ) ;
#199 = PRODUCT_DEFINITION_SHAPE ( 'NONE', 'NONE',  #61 ) ;
#200 = AXIS2_PLACEMENT_3D ( 'NONE', #33, #157, #187 ) ;
#201 = EDGE_CURVE ( 'NONE', #55, #55, #106, .T. ) ;
#202 = CARTESIAN_POINT ( 'NONE',  ( 1.856829969409412347E-14, 1.499999999999995559, 5.318172400785776688 ) ) ;
#203 = AXIS2_PLACEMENT_3D ( 'NONE', #196, #124, #149 ) ;
ENDSEC;
END-ISO-10303-21;
