ISO-10303-21;
HEADER;
FILE_DESCRIPTION (( 'STEP AP203' ),
    '1' );
FILE_NAME ('961339.step',
    '2021-11-25T13:53:17',
    ( '' ),
    ( '' ),
    'SwSTEP 2.0',
    'SolidWorks 2019',
    '' );
FILE_SCHEMA (( 'CONFIG_CONTROL_DESIGN' ));
ENDSEC;

DATA;
#1 = FACE_OUTER_BOUND ( 'NONE', #171, .T. ) ;
#2 = CC_DESIGN_PERSON_AND_ORGANIZATION_ASSIGNMENT ( #54, #69, ( #154 ) ) ;
#3 = AXIS2_PLACEMENT_3D ( 'NONE', #179, #125, #32 ) ;
#4 = APPROVAL_STATUS ( 'not_yet_approved' ) ;
#5 = APPLICATION_PROTOCOL_DEFINITION ( 'international standard', 'config_control_design', 1994, #150 ) ;
#6 = PERSON_AND_ORGANIZATION ( #93, #198 ) ;
#7 = AXIS2_PLACEMENT_3D ( 'NONE', #176, #109, #127 ) ;
#8 = MANIFOLD_SOLID_BREP ( 'Corps-Déplacer/Copier1[1]', #51 ) ;
#9 = CALENDAR_DATE ( 2021, 25, 11 ) ;
#10 = ADVANCED_FACE ( 'NONE', ( #104, #57 ), #68, .T. ) ;
#11 = AXIS2_PLACEMENT_3D ( 'NONE', #193, #110, #161 ) ;
#12 = ORIENTED_EDGE ( 'NONE', *, *, #187, .T. ) ;
#13 = ORIENTED_EDGE ( 'NONE', *, *, #52, .T. ) ;
#14 = ADVANCED_FACE ( 'NONE', ( #123 ), #173, .F. ) ;
#15 = CC_DESIGN_APPROVAL ( #181, ( #58 ) ) ;
#16 = EDGE_LOOP ( 'NONE', ( #12 ) ) ;
#17 = DIRECTION ( 'NONE',  ( 0.0000000000000000000, 1.000000000000000000, 0.0000000000000000000 ) ) ;
#18 = DIRECTION ( 'NONE',  ( 0.0000000000000000000, 1.000000000000000000, 0.0000000000000000000 ) ) ;
#19 = CARTESIAN_POINT ( 'NONE',  ( 1.889405933785016798E-14, -6.627143909829713457E-16, 5.411473670975001760 ) ) ;
#20 =( NAMED_UNIT ( * ) SI_UNIT ( $, .STERADIAN. ) SOLID_ANGLE_UNIT ( ) );
#21 = ADVANCED_FACE ( 'NONE', ( #156 ), #61, .T. ) ;
#22 = PERSON_AND_ORGANIZATION_ROLE ( 'creator' ) ;
#23 = PERSON_AND_ORGANIZATION_ROLE ( 'creator' ) ;
#24 = APPROVAL_STATUS ( 'not_yet_approved' ) ;
#25 = DATE_AND_TIME ( #168, #184 ) ;
#26 = PRODUCT_RELATED_PRODUCT_CATEGORY ( 'detail', '', ( #174 ) ) ;
#27 = ORIENTED_EDGE ( 'NONE', *, *, #72, .F. ) ;
#28 = CARTESIAN_POINT ( 'NONE',  ( 1.889405933785016798E-14, 1.124819836996389511E-32, 5.411473670975001760 ) ) ;
#29 = EDGE_CURVE ( 'NONE', #98, #98, #202, .T. ) ;
#30 = AXIS2_PLACEMENT_3D ( 'NONE', #28, #142, #89 ) ;
#31 = APPROVAL_PERSON_ORGANIZATION ( #169, #45, #186 ) ;
#32 = DIRECTION ( 'NONE',  ( 0.0000000000000000000, 1.000000000000000000, 0.0000000000000000000 ) ) ;
#33 = DIRECTION ( 'NONE',  ( -3.491481338843133355E-15, 1.224646799147353207E-16, -1.000000000000000000 ) ) ;
#34 = DIRECTION ( 'NONE',  ( -4.275831445896958607E-31, -1.000000000000000000, -1.224646799147353207E-16 ) ) ;
#35 = ADVANCED_BREP_SHAPE_REPRESENTATION ( '961339', ( #8, #148, #44 ), #149 ) ;
#36 = CARTESIAN_POINT ( 'NONE',  ( -1.817379428571359406E-33, 6.374508937726720420E-35, -5.205181561054912067E-19 ) ) ;
#37 = CYLINDRICAL_SURFACE ( 'NONE', #47, 1.499999999999998224 ) ;
#38 = APPROVAL_DATE_TIME ( #197, #181 ) ;
#39 = LOCAL_TIME ( 14, 53, 17.00000000000000000, #130 ) ;
#40 = PERSON_AND_ORGANIZATION_ROLE ( 'design_owner' ) ;
#41 = PERSON_AND_ORGANIZATION ( #93, #198 ) ;
#42 = SECURITY_CLASSIFICATION_LEVEL ( 'unclassified' ) ;
#43 = ORIENTED_EDGE ( 'NONE', *, *, #52, .F. ) ;
#44 = AXIS2_PLACEMENT_3D ( 'NONE', #194, #180, #73 ) ;
#45 = APPROVAL ( #24, 'UNSPECIFIED' ) ;
#46 = ORIENTED_EDGE ( 'NONE', *, *, #187, .F. ) ;
#47 = AXIS2_PLACEMENT_3D ( 'NONE', #203, #201, #128 ) ;
#48 = CARTESIAN_POINT ( 'NONE',  ( 1.316288464743861212E-13, 1.499999999999995781, 37.69999999999999574 ) ) ;
#49 = VERTEX_POINT ( 'NONE', #108 ) ;
#50 = FACE_OUTER_BOUND ( 'NONE', #199, .T. ) ;
#51 = CLOSED_SHELL ( 'NONE', ( #14, #135, #10, #147 ) ) ;
#52 = EDGE_CURVE ( 'NONE', #190, #190, #162, .T. ) ;
#53 = PLANE ( 'NONE',  #188 ) ;
#54 = PERSON_AND_ORGANIZATION ( #93, #198 ) ;
#55 = CALENDAR_DATE ( 2021, 25, 11 ) ;
#56 = LOCAL_TIME ( 14, 53, 17.00000000000000000, #118 ) ;
#57 = FACE_BOUND ( 'NONE', #122, .T. ) ;
#58 = PRODUCT_DEFINITION ( 'UNKNOWN', '', #154, #117 ) ;
#59 = DIRECTION ( 'NONE',  ( -3.491481338843133355E-15, 1.224646799147353207E-16, -1.000000000000000000 ) ) ;
#60 = CC_DESIGN_DATE_AND_TIME_ASSIGNMENT ( #71, #133, ( #132 ) ) ;
#61 = PLANE ( 'NONE',  #87 ) ;
#62 = PLANE ( 'NONE',  #7 ) ;
#63 = CLOSED_SHELL ( 'NONE', ( #85, #105, #21 ) ) ;
#64 = CC_DESIGN_SECURITY_CLASSIFICATION ( #132, ( #154 ) ) ;
#65 = CARTESIAN_POINT ( 'NONE',  ( 1.889405933785016798E-14, 1.499999999999995559, 5.411473670975001760 ) ) ;
#66 = FACE_OUTER_BOUND ( 'NONE', #141, .T. ) ;
#67 = CARTESIAN_POINT ( 'NONE',  ( -3.634758857142718813E-33, 1.274901787545344084E-34, -1.041036312210982413E-18 ) ) ;
#68 = CONICAL_SURFACE ( 'NONE', #183, 1.200000000000000178, 0.7853981633974457255 ) ;
#69 = PERSON_AND_ORGANIZATION_ROLE ( 'design_supplier' ) ;
#70 = APPROVAL_PERSON_ORGANIZATION ( #82, #170, #116 ) ;
#71 = DATE_AND_TIME ( #9, #106 ) ;
#72 = EDGE_CURVE ( 'NONE', #49, #49, #137, .T. ) ;
#73 = DIRECTION ( 'NONE',  ( 1.000000000000000000, 0.0000000000000000000, 0.0000000000000000000 ) ) ;
#74 = ORIENTED_EDGE ( 'NONE', *, *, #99, .T. ) ;
#75 = EDGE_LOOP ( 'NONE', ( #27 ) ) ;
#76 = DIRECTION ( 'NONE',  ( 0.0000000000000000000, 1.000000000000000000, 0.0000000000000000000 ) ) ;
#77 = DIRECTION ( 'NONE',  ( 0.0000000000000000000, 1.000000000000000000, 0.0000000000000000000 ) ) ;
#78 = DIRECTION ( 'NONE',  ( 3.491481338843133355E-15, -1.224646799147353207E-16, 1.000000000000000000 ) ) ;
#79 = CIRCLE ( 'NONE', #3, 1.499999999999996225 ) ;
#80 = DIRECTION ( 'NONE',  ( -3.491481338843133355E-15, 1.224646799147353207E-16, -1.000000000000000000 ) ) ;
#81 = PRODUCT_DEFINITION_SHAPE ( 'NONE', 'NONE',  #58 ) ;
#82 = PERSON_AND_ORGANIZATION ( #93, #198 ) ;
#83 = COORDINATED_UNIVERSAL_TIME_OFFSET ( 1, 0, .AHEAD. ) ;
#84 = COORDINATED_UNIVERSAL_TIME_OFFSET ( 1, 0, .AHEAD. ) ;
#85 = ADVANCED_FACE ( 'NONE', ( #178 ), #53, .F. ) ;
#86 = DATE_AND_TIME ( #55, #56 ) ;
#87 = AXIS2_PLACEMENT_3D ( 'NONE', #124, #78, #160 ) ;
#88 = EDGE_LOOP ( 'NONE', ( #91 ) ) ;
#89 = DIRECTION ( 'NONE',  ( -4.275831445896958607E-31, -1.000000000000000000, -1.224646799147353207E-16 ) ) ;
#90 = CONICAL_SURFACE ( 'NONE', #11, 1.499999999999996225, 0.2617993877991427465 ) ;
#91 = ORIENTED_EDGE ( 'NONE', *, *, #29, .T. ) ;
#92 = DIRECTION ( 'NONE',  ( -3.491481338843133355E-15, 1.224646799147353207E-16, -1.000000000000000000 ) ) ;
#93 = PERSON ( 'UNSPECIFIED', 'UNSPECIFIED', 'UNSPECIFIED', ('UNSPECIFIED'), ('UNSPECIFIED'), ('UNSPECIFIED') ) ;
#94 = VERTEX_POINT ( 'NONE', #65 ) ;
#95 = DIRECTION ( 'NONE',  ( 3.491481338843133355E-15, -1.224646799147353207E-16, 1.000000000000000000 ) ) ;
#96 = AXIS2_PLACEMENT_3D ( 'NONE', #67, #92, #145 ) ;
#97 = CARTESIAN_POINT ( 'NONE',  ( 1.889405933785016798E-14, 1.499999999999995559, 5.411473670975001760 ) ) ;
#98 = VERTEX_POINT ( 'NONE', #97 ) ;
#99 = EDGE_CURVE ( 'NONE', #164, #164, #195, .T. ) ;
#100 = DATE_TIME_ROLE ( 'creation_date' ) ;
#101 = APPROVAL_ROLE ( '' ) ;
#102 = PERSON_AND_ORGANIZATION_ROLE ( 'classification_officer' ) ;
#103 = CC_DESIGN_PERSON_AND_ORGANIZATION_ASSIGNMENT ( #165, #22, ( #154 ) ) ;
#104 = FACE_OUTER_BOUND ( 'NONE', #157, .T. ) ;
#105 = ADVANCED_FACE ( 'NONE', ( #143, #177 ), #90, .T. ) ;
#106 = LOCAL_TIME ( 14, 53, 17.00000000000000000, #84 ) ;
#107 = ORIENTED_EDGE ( 'NONE', *, *, #99, .F. ) ;
#108 = CARTESIAN_POINT ( 'NONE',  ( 1.774439837234213840E-32, 0.05000000000000014849, 5.082197683525802034E-18 ) ) ;
#109 = DIRECTION ( 'NONE',  ( -3.491481338843133355E-15, 1.224646799147353207E-16, -1.000000000000000000 ) ) ;
#110 = DIRECTION ( 'NONE',  ( 3.491481338843133355E-15, -1.224646799147353207E-16, 1.000000000000000000 ) ) ;
#111 = APPROVAL_STATUS ( 'not_yet_approved' ) ;
#112 = AXIS2_PLACEMENT_3D ( 'NONE', #19, #80, #77 ) ;
#113 = AXIS2_PLACEMENT_3D ( 'NONE', #146, #33, #17 ) ;
#114 = PERSON_AND_ORGANIZATION ( #93, #198 ) ;
#115 = CC_DESIGN_PERSON_AND_ORGANIZATION_ASSIGNMENT ( #6, #23, ( #58 ) ) ;
#116 = APPROVAL_ROLE ( '' ) ;
#117 = DESIGN_CONTEXT ( 'detailed design', #150, 'design' ) ;
#118 = COORDINATED_UNIVERSAL_TIME_OFFSET ( 1, 0, .AHEAD. ) ;
#119 = UNCERTAINTY_MEASURE_WITH_UNIT (LENGTH_MEASURE( 1.000000000000000082E-05 ), #126, 'distance_accuracy_value', 'NONE');
#120 = CARTESIAN_POINT ( 'NONE',  ( 1.326762908760390423E-13, -4.653657836759941941E-15, 38.00000000000000000 ) ) ;
#121 = AXIS2_PLACEMENT_3D ( 'NONE', #144, #192, #18 ) ;
#122 = EDGE_LOOP ( 'NONE', ( #74 ) ) ;
#123 = FACE_OUTER_BOUND ( 'NONE', #16, .T. ) ;
#124 = CARTESIAN_POINT ( 'NONE',  ( 1.889405933785016798E-14, 1.124819836996389511E-32, 5.411473670975001760 ) ) ;
#125 = DIRECTION ( 'NONE',  ( -3.491481338843133355E-15, 1.224646799147353207E-16, -1.000000000000000000 ) ) ;
#126 =( LENGTH_UNIT ( ) NAMED_UNIT ( * ) SI_UNIT ( .MILLI., .METRE. ) );
#127 = DIRECTION ( 'NONE',  ( 4.275831445896958607E-31, 1.000000000000000000, 1.224646799147353207E-16 ) ) ;
#128 = DIRECTION ( 'NONE',  ( 4.275831445896958607E-31, 1.000000000000000000, 1.224646799147353207E-16 ) ) ;
#129 = LOCAL_TIME ( 14, 53, 17.00000000000000000, #167 ) ;
#130 = COORDINATED_UNIVERSAL_TIME_OFFSET ( 1, 0, .AHEAD. ) ;
#131 = DATE_AND_TIME ( #151, #129 ) ;
#132 = SECURITY_CLASSIFICATION ( '', '', #42 ) ;
#133 = DATE_TIME_ROLE ( 'classification_date' ) ;
#134 = CALENDAR_DATE ( 2021, 25, 11 ) ;
#135 = ADVANCED_FACE ( 'NONE', ( #50, #1 ), #37, .T. ) ;
#136 = MECHANICAL_CONTEXT ( 'NONE', #138, 'mechanical' ) ;
#137 = CIRCLE ( 'NONE', #96, 0.05000000000000014849 ) ;
#138 = APPLICATION_CONTEXT ( 'configuration controlled 3d designs of mechanical parts and assemblies' ) ;
#139 = ORIENTED_EDGE ( 'NONE', *, *, #29, .F. ) ;
#140 = ORIENTED_EDGE ( 'NONE', *, *, #72, .T. ) ;
#141 = EDGE_LOOP ( 'NONE', ( #107 ) ) ;
#142 = DIRECTION ( 'NONE',  ( 3.491481338843133355E-15, -1.224646799147353207E-16, 1.000000000000000000 ) ) ;
#143 = FACE_BOUND ( 'NONE', #75, .T. ) ;
#144 = CARTESIAN_POINT ( 'NONE',  ( 1.326762908760390423E-13, -4.653657836759941941E-15, 38.00000000000000000 ) ) ;
#145 = DIRECTION ( 'NONE',  ( 4.275831445896958607E-31, 1.000000000000000000, 1.224646799147353207E-16 ) ) ;
#146 = CARTESIAN_POINT ( 'NONE',  ( 1.316288464743861212E-13, -4.616918432785521081E-15, 37.69999999999999574 ) ) ;
#147 = ADVANCED_FACE ( 'NONE', ( #66 ), #62, .F. ) ;
#148 = MANIFOLD_SOLID_BREP ( 'Corps-Déplacer/Copier1[2]', #63 ) ;
#149 =( GEOMETRIC_REPRESENTATION_CONTEXT ( 3 ) GLOBAL_UNCERTAINTY_ASSIGNED_CONTEXT ( ( #119 ) ) GLOBAL_UNIT_ASSIGNED_CONTEXT ( ( #126, #191, #20 ) ) REPRESENTATION_CONTEXT ( 'NONE', 'WORKASPACE' ) );
#150 = APPLICATION_CONTEXT ( 'configuration controlled 3d designs of mechanical parts and assemblies' ) ;
#151 = CALENDAR_DATE ( 2021, 25, 11 ) ;
#152 = APPROVAL_DATE_TIME ( #86, #45 ) ;
#153 = SHAPE_DEFINITION_REPRESENTATION ( #81, #35 ) ;
#154 = PRODUCT_DEFINITION_FORMATION_WITH_SPECIFIED_SOURCE ( 'ANY', '', #174, .NOT_KNOWN. ) ;
#155 = CC_DESIGN_DATE_AND_TIME_ASSIGNMENT ( #25, #100, ( #58 ) ) ;
#156 = FACE_OUTER_BOUND ( 'NONE', #189, .T. ) ;
#157 = EDGE_LOOP ( 'NONE', ( #43 ) ) ;
#158 = EDGE_LOOP ( 'NONE', ( #140 ) ) ;
#159 = CC_DESIGN_PERSON_AND_ORGANIZATION_ASSIGNMENT ( #114, #102, ( #132 ) ) ;
#160 = DIRECTION ( 'NONE',  ( -4.275831445896958607E-31, -1.000000000000000000, -1.224646799147353207E-16 ) ) ;
#161 = DIRECTION ( 'NONE',  ( 0.0000000000000000000, -1.000000000000000000, 0.0000000000000000000 ) ) ;
#162 = CIRCLE ( 'NONE', #113, 1.500000000000000222 ) ;
#163 = CARTESIAN_POINT ( 'NONE',  ( 1.326762908760390423E-13, 1.199999999999995515, 38.00000000000000000 ) ) ;
#164 = VERTEX_POINT ( 'NONE', #163 ) ;
#165 = PERSON_AND_ORGANIZATION ( #93, #198 ) ;
#166 = APPROVAL_PERSON_ORGANIZATION ( #41, #181, #101 ) ;
#167 = COORDINATED_UNIVERSAL_TIME_OFFSET ( 1, 0, .AHEAD. ) ;
#168 = CALENDAR_DATE ( 2021, 25, 11 ) ;
#169 = PERSON_AND_ORGANIZATION ( #93, #198 ) ;
#170 = APPROVAL ( #111, 'UNSPECIFIED' ) ;
#171 = EDGE_LOOP ( 'NONE', ( #13 ) ) ;
#172 = CC_DESIGN_APPROVAL ( #45, ( #154 ) ) ;
#173 = PLANE ( 'NONE',  #30 ) ;
#174 = PRODUCT ( '961339', '961339', '', ( #136 ) ) ;
#175 = CC_DESIGN_APPROVAL ( #170, ( #132 ) ) ;
#176 = CARTESIAN_POINT ( 'NONE',  ( 1.326762908760390423E-13, 8.998558695971078593E-33, 38.00000000000000000 ) ) ;
#177 = FACE_OUTER_BOUND ( 'NONE', #88, .T. ) ;
#178 = FACE_OUTER_BOUND ( 'NONE', #158, .T. ) ;
#179 = CARTESIAN_POINT ( 'NONE',  ( 1.889405933785016798E-14, -6.627143909829713457E-16, 5.411473670975001760 ) ) ;
#180 = DIRECTION ( 'NONE',  ( 0.0000000000000000000, 0.0000000000000000000, 1.000000000000000000 ) ) ;
#181 = APPROVAL ( #4, 'UNSPECIFIED' ) ;
#182 = PERSON_AND_ORGANIZATION ( #93, #198 ) ;
#183 = AXIS2_PLACEMENT_3D ( 'NONE', #120, #59, #76 ) ;
#184 = LOCAL_TIME ( 14, 53, 17.00000000000000000, #83 ) ;
#185 = APPROVAL_DATE_TIME ( #131, #170 ) ;
#186 = APPROVAL_ROLE ( '' ) ;
#187 = EDGE_CURVE ( 'NONE', #94, #94, #79, .T. ) ;
#188 = AXIS2_PLACEMENT_3D ( 'NONE', #36, #95, #34 ) ;
#189 = EDGE_LOOP ( 'NONE', ( #139 ) ) ;
#190 = VERTEX_POINT ( 'NONE', #48 ) ;
#191 =( NAMED_UNIT ( * ) PLANE_ANGLE_UNIT ( ) SI_UNIT ( $, .RADIAN. ) );
#192 = DIRECTION ( 'NONE',  ( -3.491481338843133355E-15, 1.224646799147353207E-16, -1.000000000000000000 ) ) ;
#193 = CARTESIAN_POINT ( 'NONE',  ( 1.889405933785016798E-14, -6.627143909829713457E-16, 5.411473670975001760 ) ) ;
#194 = CARTESIAN_POINT ( 'NONE',  ( 0.0000000000000000000, 0.0000000000000000000, 0.0000000000000000000 ) ) ;
#195 = CIRCLE ( 'NONE', #121, 1.200000000000000178 ) ;
#196 = APPLICATION_PROTOCOL_DEFINITION ( 'international standard', 'config_control_design', 1994, #138 ) ;
#197 = DATE_AND_TIME ( #134, #39 ) ;
#198 = ORGANIZATION ( 'UNSPECIFIED', 'UNSPECIFIED', '' ) ;
#199 = EDGE_LOOP ( 'NONE', ( #46 ) ) ;
#200 = CC_DESIGN_PERSON_AND_ORGANIZATION_ASSIGNMENT ( #182, #40, ( #174 ) ) ;
#201 = DIRECTION ( 'NONE',  ( -3.491481338843133355E-15, 1.224646799147353207E-16, -1.000000000000000000 ) ) ;
#202 = CIRCLE ( 'NONE', #112, 1.499999999999996225 ) ;
#203 = CARTESIAN_POINT ( 'NONE',  ( 0.0000000000000000000, 0.0000000000000000000, 0.0000000000000000000 ) ) ;
ENDSEC;
END-ISO-10303-21;
