ISO-10303-21;
HEADER;
FILE_DESCRIPTION (( 'STEP AP203' ),
    '1' );
FILE_NAME ('961338.step',
    '2021-11-25T13:42:40',
    ( '' ),
    ( '' ),
    'SwSTEP 2.0',
    'SolidWorks 2019',
    '' );
FILE_SCHEMA (( 'CONFIG_CONTROL_DESIGN' ));
ENDSEC;

DATA;
#1 = AXIS2_PLACEMENT_3D ( 'NONE', #108, #146, #115 ) ;
#2 = APPROVAL_PERSON_ORGANIZATION ( #57, #9, #167 ) ;
#3 = EDGE_LOOP ( 'NONE', ( #25 ) ) ;
#4 = MECHANICAL_CONTEXT ( 'NONE', #17, 'mechanical' ) ;
#5 = ORIENTED_EDGE ( 'NONE', *, *, #64, .T. ) ;
#6 = CIRCLE ( 'NONE', #166, 1.500000000000000222 ) ;
#7 = APPROVAL_STATUS ( 'not_yet_approved' ) ;
#8 = DATE_TIME_ROLE ( 'classification_date' ) ;
#9 = APPROVAL ( #88, 'UNSPECIFIED' ) ;
#10 = PERSON_AND_ORGANIZATION ( #126, #98 ) ;
#11 = DIRECTION ( 'NONE',  ( 4.275831445896958607E-31, 1.000000000000000000, 1.224646799147353207E-16 ) ) ;
#12 = AXIS2_PLACEMENT_3D ( 'NONE', #188, #48, #35 ) ;
#13 =( NAMED_UNIT ( * ) PLANE_ANGLE_UNIT ( ) SI_UNIT ( $, .RADIAN. ) );
#14 = CC_DESIGN_DATE_AND_TIME_ASSIGNMENT ( #185, #78, ( #114 ) ) ;
#15 = PERSON_AND_ORGANIZATION ( #126, #98 ) ;
#16 = CARTESIAN_POINT ( 'NONE',  ( 1.316288464743861212E-13, -4.616918432785521081E-15, 37.69999999999999574 ) ) ;
#17 = APPLICATION_CONTEXT ( 'configuration controlled 3d designs of mechanical parts and assemblies' ) ;
#18 = DIRECTION ( 'NONE',  ( 0.0000000000000000000, -1.000000000000000000, 0.0000000000000000000 ) ) ;
#19 = FACE_BOUND ( 'NONE', #103, .T. ) ;
#20 = DIRECTION ( 'NONE',  ( -4.275831445896958607E-31, -1.000000000000000000, -1.224646799147353207E-16 ) ) ;
#21 = MANIFOLD_SOLID_BREP ( 'Corps-Déplacer/Copier1[2]', #177 ) ;
#22 = AXIS2_PLACEMENT_3D ( 'NONE', #129, #43, #11 ) ;
#23 = DIRECTION ( 'NONE',  ( 0.0000000000000000000, 1.000000000000000000, 0.0000000000000000000 ) ) ;
#24 = CARTESIAN_POINT ( 'NONE',  ( 1.326762908760390423E-13, -4.653657836759941941E-15, 38.00000000000000000 ) ) ;
#25 = ORIENTED_EDGE ( 'NONE', *, *, #149, .F. ) ;
#26 = PRODUCT_DEFINITION_FORMATION_WITH_SPECIFIED_SOURCE ( 'ANY', '', #163, .NOT_KNOWN. ) ;
#27 = APPLICATION_CONTEXT ( 'configuration controlled 3d designs of mechanical parts and assemblies' ) ;
#28 = PERSON_AND_ORGANIZATION ( #126, #98 ) ;
#29 = CYLINDRICAL_SURFACE ( 'NONE', #22, 1.499999999999998224 ) ;
#30 = CARTESIAN_POINT ( 'NONE',  ( -3.634758857142718813E-33, 1.274901787545344084E-34, -1.041036312210982413E-18 ) ) ;
#31 = ADVANCED_FACE ( 'NONE', ( #153, #154 ), #102, .T. ) ;
#32 = PRODUCT_RELATED_PRODUCT_CATEGORY ( 'detail', '', ( #163 ) ) ;
#33 = CC_DESIGN_APPROVAL ( #186, ( #26 ) ) ;
#34 = APPROVAL_DATE_TIME ( #118, #9 ) ;
#35 = DIRECTION ( 'NONE',  ( -4.275831445896958607E-31, -1.000000000000000000, -1.224646799147353207E-16 ) ) ;
#36 = ADVANCED_FACE ( 'NONE', ( #133, #19 ), #150, .T. ) ;
#37 = CC_DESIGN_PERSON_AND_ORGANIZATION_ASSIGNMENT ( #158, #144, ( #26 ) ) ;
#38 = COORDINATED_UNIVERSAL_TIME_OFFSET ( 1, 0, .AHEAD. ) ;
#39 = DIRECTION ( 'NONE',  ( 3.491481338843133355E-15, -1.224646799147353207E-16, 1.000000000000000000 ) ) ;
#40 = ADVANCED_FACE ( 'NONE', ( #174 ), #99, .F. ) ;
#41 = VERTEX_POINT ( 'NONE', #101 ) ;
#42 = CARTESIAN_POINT ( 'NONE',  ( 0.0000000000000000000, 0.0000000000000000000, 0.0000000000000000000 ) ) ;
#43 = DIRECTION ( 'NONE',  ( -3.491481338843133355E-15, 1.224646799147353207E-16, -1.000000000000000000 ) ) ;
#44 = CALENDAR_DATE ( 2021, 25, 11 ) ;
#45 = AXIS2_PLACEMENT_3D ( 'NONE', #203, #39, #18 ) ;
#46 = PLANE ( 'NONE',  #179 ) ;
#47 = DIRECTION ( 'NONE',  ( 3.491481338843133355E-15, -1.224646799147353207E-16, 1.000000000000000000 ) ) ;
#48 = DIRECTION ( 'NONE',  ( 3.491481338843133355E-15, -1.224646799147353207E-16, 1.000000000000000000 ) ) ;
#49 = FACE_OUTER_BOUND ( 'NONE', #156, .T. ) ;
#50 = CARTESIAN_POINT ( 'NONE',  ( 1.889405933785016798E-14, 1.499999999999995559, 5.411473670975001760 ) ) ;
#51 = AXIS2_PLACEMENT_3D ( 'NONE', #30, #89, #168 ) ;
#52 = EDGE_CURVE ( 'NONE', #184, #184, #159, .T. ) ;
#53 = DATE_AND_TIME ( #192, #60 ) ;
#54 = PERSON_AND_ORGANIZATION_ROLE ( 'classification_officer' ) ;
#55 = LOCAL_TIME ( 14, 42, 40.00000000000000000, #141 ) ;
#56 = VERTEX_POINT ( 'NONE', #180 ) ;
#57 = PERSON_AND_ORGANIZATION ( #126, #98 ) ;
#58 = CALENDAR_DATE ( 2021, 25, 11 ) ;
#59 = DIRECTION ( 'NONE',  ( 0.0000000000000000000, 1.000000000000000000, 0.0000000000000000000 ) ) ;
#60 = LOCAL_TIME ( 14, 42, 40.00000000000000000, #125 ) ;
#61 = CC_DESIGN_APPROVAL ( #9, ( #80 ) ) ;
#62 = ADVANCED_BREP_SHAPE_REPRESENTATION ( '961338', ( #147, #21, #183 ), #72 ) ;
#63 = DIRECTION ( 'NONE',  ( -3.491481338843133355E-15, 1.224646799147353207E-16, -1.000000000000000000 ) ) ;
#64 = EDGE_CURVE ( 'NONE', #56, #56, #120, .T. ) ;
#65 = EDGE_LOOP ( 'NONE', ( #71 ) ) ;
#66 = DIRECTION ( 'NONE',  ( 0.0000000000000000000, 1.000000000000000000, 0.0000000000000000000 ) ) ;
#67 = DATE_AND_TIME ( #44, #162 ) ;
#68 = CARTESIAN_POINT ( 'NONE',  ( 1.316288464743861212E-13, 1.499999999999995781, 37.69999999999999574 ) ) ;
#69 = ORIENTED_EDGE ( 'NONE', *, *, #52, .F. ) ;
#70 = ADVANCED_FACE ( 'NONE', ( #49 ), #176, .F. ) ;
#71 = ORIENTED_EDGE ( 'NONE', *, *, #121, .F. ) ;
#72 =( GEOMETRIC_REPRESENTATION_CONTEXT ( 3 ) GLOBAL_UNCERTAINTY_ASSIGNED_CONTEXT ( ( #137 ) ) GLOBAL_UNIT_ASSIGNED_CONTEXT ( ( #79, #13, #106 ) ) REPRESENTATION_CONTEXT ( 'NONE', 'WORKASPACE' ) );
#73 = PERSON_AND_ORGANIZATION_ROLE ( 'design_supplier' ) ;
#74 = DATE_AND_TIME ( #164, #189 ) ;
#75 = CARTESIAN_POINT ( 'NONE',  ( 1.889405933785016798E-14, 1.499999999999995559, 5.411473670975001760 ) ) ;
#76 = CC_DESIGN_PERSON_AND_ORGANIZATION_ASSIGNMENT ( #15, #119, ( #114 ) ) ;
#77 = CIRCLE ( 'NONE', #51, 0.05000000000000014849 ) ;
#78 = DATE_TIME_ROLE ( 'creation_date' ) ;
#79 =( LENGTH_UNIT ( ) NAMED_UNIT ( * ) SI_UNIT ( .MILLI., .METRE. ) );
#80 = SECURITY_CLASSIFICATION ( '', '', #128 ) ;
#81 = DIRECTION ( 'NONE',  ( 0.0000000000000000000, 1.000000000000000000, 0.0000000000000000000 ) ) ;
#82 = ADVANCED_FACE ( 'NONE', ( #151 ), #46, .F. ) ;
#83 = SHAPE_DEFINITION_REPRESENTATION ( #169, #62 ) ;
#84 = FACE_OUTER_BOUND ( 'NONE', #65, .T. ) ;
#85 = AXIS2_PLACEMENT_3D ( 'NONE', #24, #94, #23 ) ;
#86 = VERTEX_POINT ( 'NONE', #68 ) ;
#87 = DIRECTION ( 'NONE',  ( 0.0000000000000000000, 0.0000000000000000000, 1.000000000000000000 ) ) ;
#88 = APPROVAL_STATUS ( 'not_yet_approved' ) ;
#89 = DIRECTION ( 'NONE',  ( -3.491481338843133355E-15, 1.224646799147353207E-16, -1.000000000000000000 ) ) ;
#90 = AXIS2_PLACEMENT_3D ( 'NONE', #155, #63, #66 ) ;
#91 = PERSON_AND_ORGANIZATION ( #126, #98 ) ;
#92 = APPLICATION_PROTOCOL_DEFINITION ( 'international standard', 'config_control_design', 1994, #17 ) ;
#93 = CIRCLE ( 'NONE', #1, 1.499999999999996225 ) ;
#94 = DIRECTION ( 'NONE',  ( -3.491481338843133355E-15, 1.224646799147353207E-16, -1.000000000000000000 ) ) ;
#95 = DIRECTION ( 'NONE',  ( 3.491481338843133355E-15, -1.224646799147353207E-16, 1.000000000000000000 ) ) ;
#96 = ORIENTED_EDGE ( 'NONE', *, *, #195, .T. ) ;
#97 = APPROVAL_STATUS ( 'not_yet_approved' ) ;
#98 = ORGANIZATION ( 'UNSPECIFIED', 'UNSPECIFIED', '' ) ;
#99 = PLANE ( 'NONE',  #12 ) ;
#100 = ORIENTED_EDGE ( 'NONE', *, *, #149, .T. ) ;
#101 = CARTESIAN_POINT ( 'NONE',  ( 1.774439837234213840E-32, 0.05000000000000014849, 5.082197683525802034E-18 ) ) ;
#102 = CONICAL_SURFACE ( 'NONE', #45, 1.499999999999996225, 0.2617993877991427465 ) ;
#103 = EDGE_LOOP ( 'NONE', ( #5 ) ) ;
#104 = ORIENTED_EDGE ( 'NONE', *, *, #121, .T. ) ;
#105 = CLOSED_SHELL ( 'NONE', ( #40, #190, #36, #70 ) ) ;
#106 =( NAMED_UNIT ( * ) SI_UNIT ( $, .STERADIAN. ) SOLID_ANGLE_UNIT ( ) );
#107 = COORDINATED_UNIVERSAL_TIME_OFFSET ( 1, 0, .AHEAD. ) ;
#108 = CARTESIAN_POINT ( 'NONE',  ( 1.889405933785016798E-14, -6.627143909829713457E-16, 5.411473670975001760 ) ) ;
#109 = ADVANCED_FACE ( 'NONE', ( #84 ), #134, .T. ) ;
#110 = EDGE_LOOP ( 'NONE', ( #201 ) ) ;
#111 = DIRECTION ( 'NONE',  ( -4.275831445896958607E-31, -1.000000000000000000, -1.224646799147353207E-16 ) ) ;
#112 = ORIENTED_EDGE ( 'NONE', *, *, #64, .F. ) ;
#113 = APPROVAL_PERSON_ORGANIZATION ( #140, #182, #148 ) ;
#114 = PRODUCT_DEFINITION ( 'UNKNOWN', '', #26, #124 ) ;
#115 = DIRECTION ( 'NONE',  ( 0.0000000000000000000, 1.000000000000000000, 0.0000000000000000000 ) ) ;
#116 = CALENDAR_DATE ( 2021, 25, 11 ) ;
#117 = AXIS2_PLACEMENT_3D ( 'NONE', #132, #198, #170 ) ;
#118 = DATE_AND_TIME ( #58, #55 ) ;
#119 = PERSON_AND_ORGANIZATION_ROLE ( 'creator' ) ;
#120 = CIRCLE ( 'NONE', #191, 1.200000000000000178 ) ;
#121 = EDGE_CURVE ( 'NONE', #165, #165, #93, .T. ) ;
#122 = CC_DESIGN_DATE_AND_TIME_ASSIGNMENT ( #74, #8, ( #80 ) ) ;
#123 = APPROVAL_DATE_TIME ( #67, #186 ) ;
#124 = DESIGN_CONTEXT ( 'detailed design', #27, 'design' ) ;
#125 = COORDINATED_UNIVERSAL_TIME_OFFSET ( 1, 0, .AHEAD. ) ;
#126 = PERSON ( 'UNSPECIFIED', 'UNSPECIFIED', 'UNSPECIFIED', ('UNSPECIFIED'), ('UNSPECIFIED'), ('UNSPECIFIED') ) ;
#127 = APPLICATION_PROTOCOL_DEFINITION ( 'international standard', 'config_control_design', 1994, #27 ) ;
#128 = SECURITY_CLASSIFICATION_LEVEL ( 'unclassified' ) ;
#129 = CARTESIAN_POINT ( 'NONE',  ( 0.0000000000000000000, 0.0000000000000000000, 0.0000000000000000000 ) ) ;
#130 = APPROVAL_PERSON_ORGANIZATION ( #91, #186, #194 ) ;
#131 = FACE_OUTER_BOUND ( 'NONE', #161, .T. ) ;
#132 = CARTESIAN_POINT ( 'NONE',  ( 1.326762908760390423E-13, 8.998558695971078593E-33, 38.00000000000000000 ) ) ;
#133 = FACE_OUTER_BOUND ( 'NONE', #110, .T. ) ;
#134 = PLANE ( 'NONE',  #171 ) ;
#135 = CC_DESIGN_PERSON_AND_ORGANIZATION_ASSIGNMENT ( #10, #73, ( #26 ) ) ;
#136 = CARTESIAN_POINT ( 'NONE',  ( 1.326762908760390423E-13, -4.653657836759941941E-15, 38.00000000000000000 ) ) ;
#137 = UNCERTAINTY_MEASURE_WITH_UNIT (LENGTH_MEASURE( 1.000000000000000082E-05 ), #79, 'distance_accuracy_value', 'NONE');
#138 = DIRECTION ( 'NONE',  ( 1.000000000000000000, 0.0000000000000000000, 0.0000000000000000000 ) ) ;
#139 = CC_DESIGN_PERSON_AND_ORGANIZATION_ASSIGNMENT ( #28, #178, ( #163 ) ) ;
#140 = PERSON_AND_ORGANIZATION ( #126, #98 ) ;
#141 = COORDINATED_UNIVERSAL_TIME_OFFSET ( 1, 0, .AHEAD. ) ;
#142 = APPROVAL_DATE_TIME ( #53, #182 ) ;
#143 = EDGE_LOOP ( 'NONE', ( #69 ) ) ;
#144 = PERSON_AND_ORGANIZATION_ROLE ( 'creator' ) ;
#145 = FACE_OUTER_BOUND ( 'NONE', #143, .T. ) ;
#146 = DIRECTION ( 'NONE',  ( -3.491481338843133355E-15, 1.224646799147353207E-16, -1.000000000000000000 ) ) ;
#147 = MANIFOLD_SOLID_BREP ( 'Corps-Déplacer/Copier1[1]', #105 ) ;
#148 = APPROVAL_ROLE ( '' ) ;
#149 = EDGE_CURVE ( 'NONE', #41, #41, #77, .T. ) ;
#150 = CONICAL_SURFACE ( 'NONE', #85, 1.200000000000000178, 0.7853981633974457255 ) ;
#151 = FACE_OUTER_BOUND ( 'NONE', #173, .T. ) ;
#152 = EDGE_LOOP ( 'NONE', ( #104 ) ) ;
#153 = FACE_BOUND ( 'NONE', #3, .T. ) ;
#154 = FACE_OUTER_BOUND ( 'NONE', #152, .T. ) ;
#155 = CARTESIAN_POINT ( 'NONE',  ( 1.889405933785016798E-14, -6.627143909829713457E-16, 5.411473670975001760 ) ) ;
#156 = EDGE_LOOP ( 'NONE', ( #112 ) ) ;
#157 = ORIENTED_EDGE ( 'NONE', *, *, #52, .T. ) ;
#158 = PERSON_AND_ORGANIZATION ( #126, #98 ) ;
#159 = CIRCLE ( 'NONE', #90, 1.499999999999996225 ) ;
#160 = EDGE_LOOP ( 'NONE', ( #157 ) ) ;
#161 = EDGE_LOOP ( 'NONE', ( #96 ) ) ;
#162 = LOCAL_TIME ( 14, 42, 40.00000000000000000, #181 ) ;
#163 = PRODUCT ( '961338', '961338', '', ( #4 ) ) ;
#164 = CALENDAR_DATE ( 2021, 25, 11 ) ;
#165 = VERTEX_POINT ( 'NONE', #50 ) ;
#166 = AXIS2_PLACEMENT_3D ( 'NONE', #16, #196, #59 ) ;
#167 = APPROVAL_ROLE ( '' ) ;
#168 = DIRECTION ( 'NONE',  ( 4.275831445896958607E-31, 1.000000000000000000, 1.224646799147353207E-16 ) ) ;
#169 = PRODUCT_DEFINITION_SHAPE ( 'NONE', 'NONE',  #114 ) ;
#170 = DIRECTION ( 'NONE',  ( 4.275831445896958607E-31, 1.000000000000000000, 1.224646799147353207E-16 ) ) ;
#171 = AXIS2_PLACEMENT_3D ( 'NONE', #187, #47, #111 ) ;
#172 = CC_DESIGN_SECURITY_CLASSIFICATION ( #80, ( #26 ) ) ;
#173 = EDGE_LOOP ( 'NONE', ( #100 ) ) ;
#174 = FACE_OUTER_BOUND ( 'NONE', #160, .T. ) ;
#175 = CC_DESIGN_APPROVAL ( #182, ( #114 ) ) ;
#176 = PLANE ( 'NONE',  #117 ) ;
#177 = CLOSED_SHELL ( 'NONE', ( #82, #31, #109 ) ) ;
#178 = PERSON_AND_ORGANIZATION_ROLE ( 'design_owner' ) ;
#179 = AXIS2_PLACEMENT_3D ( 'NONE', #199, #95, #20 ) ;
#180 = CARTESIAN_POINT ( 'NONE',  ( 1.326762908760390423E-13, 1.199999999999995515, 38.00000000000000000 ) ) ;
#181 = COORDINATED_UNIVERSAL_TIME_OFFSET ( 1, 0, .AHEAD. ) ;
#182 = APPROVAL ( #7, 'UNSPECIFIED' ) ;
#183 = AXIS2_PLACEMENT_3D ( 'NONE', #42, #87, #138 ) ;
#184 = VERTEX_POINT ( 'NONE', #75 ) ;
#185 = DATE_AND_TIME ( #116, #197 ) ;
#186 = APPROVAL ( #97, 'UNSPECIFIED' ) ;
#187 = CARTESIAN_POINT ( 'NONE',  ( 1.889405933785016798E-14, 1.124819836996389511E-32, 5.411473670975001760 ) ) ;
#188 = CARTESIAN_POINT ( 'NONE',  ( 1.889405933785016798E-14, 1.124819836996389511E-32, 5.411473670975001760 ) ) ;
#189 = LOCAL_TIME ( 14, 42, 40.00000000000000000, #107 ) ;
#190 = ADVANCED_FACE ( 'NONE', ( #145, #131 ), #29, .T. ) ;
#191 = AXIS2_PLACEMENT_3D ( 'NONE', #136, #202, #81 ) ;
#192 = CALENDAR_DATE ( 2021, 25, 11 ) ;
#193 = PERSON_AND_ORGANIZATION ( #126, #98 ) ;
#194 = APPROVAL_ROLE ( '' ) ;
#195 = EDGE_CURVE ( 'NONE', #86, #86, #6, .T. ) ;
#196 = DIRECTION ( 'NONE',  ( -3.491481338843133355E-15, 1.224646799147353207E-16, -1.000000000000000000 ) ) ;
#197 = LOCAL_TIME ( 14, 42, 40.00000000000000000, #38 ) ;
#198 = DIRECTION ( 'NONE',  ( -3.491481338843133355E-15, 1.224646799147353207E-16, -1.000000000000000000 ) ) ;
#199 = CARTESIAN_POINT ( 'NONE',  ( -1.817379428571359406E-33, 6.374508937726720420E-35, -5.205181561054912067E-19 ) ) ;
#200 = CC_DESIGN_PERSON_AND_ORGANIZATION_ASSIGNMENT ( #193, #54, ( #80 ) ) ;
#201 = ORIENTED_EDGE ( 'NONE', *, *, #195, .F. ) ;
#202 = DIRECTION ( 'NONE',  ( -3.491481338843133355E-15, 1.224646799147353207E-16, -1.000000000000000000 ) ) ;
#203 = CARTESIAN_POINT ( 'NONE',  ( 1.889405933785016798E-14, -6.627143909829713457E-16, 5.411473670975001760 ) ) ;
ENDSEC;
END-ISO-10303-21;
