ISO-10303-21;
HEADER;
FILE_DESCRIPTION (( 'STEP AP203' ),
    '1' );
FILE_NAME ('961337.step',
    '2021-11-25T13:53:16',
    ( '' ),
    ( '' ),
    'SwSTEP 2.0',
    'SolidWorks 2019',
    '' );
FILE_SCHEMA (( 'CONFIG_CONTROL_DESIGN' ));
ENDSEC;

DATA;
#1 = DATE_TIME_ROLE ( 'creation_date' ) ;
#2 = ADVANCED_FACE ( 'NONE', ( #122 ), #133, .T. ) ;
#3 = PERSON_AND_ORGANIZATION ( #10, #42 ) ;
#4 = FACE_OUTER_BOUND ( 'NONE', #172, .T. ) ;
#5 = CARTESIAN_POINT ( 'NONE',  ( 1.326762908760390423E-13, -4.653657836759941941E-15, 38.00000000000000000 ) ) ;
#6 = CONICAL_SURFACE ( 'NONE', #173, 1.200000000000000178, 0.7853981633974457255 ) ;
#7 = CC_DESIGN_PERSON_AND_ORGANIZATION_ASSIGNMENT ( #162, #161, ( #39 ) ) ;
#8 = CC_DESIGN_APPROVAL ( #100, ( #39 ) ) ;
#9 = CC_DESIGN_PERSON_AND_ORGANIZATION_ASSIGNMENT ( #139, #33, ( #55 ) ) ;
#10 = PERSON ( 'UNSPECIFIED', 'UNSPECIFIED', 'UNSPECIFIED', ('UNSPECIFIED'), ('UNSPECIFIED'), ('UNSPECIFIED') ) ;
#11 = CARTESIAN_POINT ( 'NONE',  ( 1.326762908760390423E-13, 8.998558695971078593E-33, 38.00000000000000000 ) ) ;
#12 = ORIENTED_EDGE ( 'NONE', *, *, #84, .F. ) ;
#13 = DIRECTION ( 'NONE',  ( 0.0000000000000000000, 0.0000000000000000000, 1.000000000000000000 ) ) ;
#14 = ORIENTED_EDGE ( 'NONE', *, *, #188, .F. ) ;
#15 = AXIS2_PLACEMENT_3D ( 'NONE', #117, #104, #72 ) ;
#16 = DATE_AND_TIME ( #66, #109 ) ;
#17 = ADVANCED_FACE ( 'NONE', ( #123, #187 ), #110, .T. ) ;
#18 = CALENDAR_DATE ( 2021, 25, 11 ) ;
#19 = PERSON_AND_ORGANIZATION_ROLE ( 'creator' ) ;
#20 = ADVANCED_FACE ( 'NONE', ( #190, #47 ), #192, .T. ) ;
#21 = CARTESIAN_POINT ( 'NONE',  ( 1.326762908760390423E-13, -4.653657836759941941E-15, 38.00000000000000000 ) ) ;
#22 = APPLICATION_CONTEXT ( 'configuration controlled 3d designs of mechanical parts and assemblies' ) ;
#23 = CARTESIAN_POINT ( 'NONE',  ( 1.921981898160619986E-14, -6.741405011723328509E-16, 5.504774941164225055 ) ) ;
#24 = EDGE_LOOP ( 'NONE', ( #113 ) ) ;
#25 = AXIS2_PLACEMENT_3D ( 'NONE', #23, #196, #59 ) ;
#26 = DIRECTION ( 'NONE',  ( 1.000000000000000000, 0.0000000000000000000, 0.0000000000000000000 ) ) ;
#27 = EDGE_LOOP ( 'NONE', ( #74 ) ) ;
#28 = PRODUCT_DEFINITION_SHAPE ( 'NONE', 'NONE',  #55 ) ;
#29 = CARTESIAN_POINT ( 'NONE',  ( 1.921981898160619986E-14, -6.741405011723328509E-16, 5.504774941164225055 ) ) ;
#30 =( LENGTH_UNIT ( ) NAMED_UNIT ( * ) SI_UNIT ( .MILLI., .METRE. ) );
#31 = CC_DESIGN_PERSON_AND_ORGANIZATION_ASSIGNMENT ( #135, #61, ( #56 ) ) ;
#32 = LOCAL_TIME ( 14, 53, 16.00000000000000000, #195 ) ;
#33 = PERSON_AND_ORGANIZATION_ROLE ( 'creator' ) ;
#34 = CALENDAR_DATE ( 2021, 25, 11 ) ;
#35 = FACE_OUTER_BOUND ( 'NONE', #154, .T. ) ;
#36 = ADVANCED_FACE ( 'NONE', ( #35 ), #159, .F. ) ;
#37 = DATE_AND_TIME ( #18, #125 ) ;
#38 = SHAPE_DEFINITION_REPRESENTATION ( #28, #152 ) ;
#39 = PRODUCT_DEFINITION_FORMATION_WITH_SPECIFIED_SOURCE ( 'ANY', '', #56, .NOT_KNOWN. ) ;
#40 = APPROVAL ( #201, 'UNSPECIFIED' ) ;
#41 = CARTESIAN_POINT ( 'NONE',  ( 1.316288464743861212E-13, -4.616918432785521081E-15, 37.69999999999999574 ) ) ;
#42 = ORGANIZATION ( 'UNSPECIFIED', 'UNSPECIFIED', '' ) ;
#43 = VERTEX_POINT ( 'NONE', #137 ) ;
#44 = EDGE_LOOP ( 'NONE', ( #77 ) ) ;
#45 = EDGE_LOOP ( 'NONE', ( #166 ) ) ;
#46 = AXIS2_PLACEMENT_3D ( 'NONE', #29, #142, #176 ) ;
#47 = FACE_OUTER_BOUND ( 'NONE', #79, .T. ) ;
#48 = DIRECTION ( 'NONE',  ( 4.275831445896958607E-31, 1.000000000000000000, 1.224646799147353207E-16 ) ) ;
#49 = DATE_AND_TIME ( #157, #95 ) ;
#50 = ORIENTED_EDGE ( 'NONE', *, *, #140, .F. ) ;
#51 = CIRCLE ( 'NONE', #71, 1.499999999999996225 ) ;
#52 = APPROVAL_DATE_TIME ( #129, #40 ) ;
#53 = CALENDAR_DATE ( 2021, 25, 11 ) ;
#54 = PERSON_AND_ORGANIZATION ( #10, #42 ) ;
#55 = PRODUCT_DEFINITION ( 'UNKNOWN', '', #39, #68 ) ;
#56 = PRODUCT ( '961337', '961337', '', ( #185 ) ) ;
#57 = LOCAL_TIME ( 14, 53, 16.00000000000000000, #177 ) ;
#58 = FACE_BOUND ( 'NONE', #27, .T. ) ;
#59 = DIRECTION ( 'NONE',  ( 0.0000000000000000000, 1.000000000000000000, 0.0000000000000000000 ) ) ;
#60 = APPROVAL_PERSON_ORGANIZATION ( #3, #115, #101 ) ;
#61 = PERSON_AND_ORGANIZATION_ROLE ( 'design_owner' ) ;
#62 = DIRECTION ( 'NONE',  ( 4.275831445896958607E-31, 1.000000000000000000, 1.224646799147353207E-16 ) ) ;
#63 = CC_DESIGN_APPROVAL ( #40, ( #149 ) ) ;
#64 = APPROVAL_STATUS ( 'not_yet_approved' ) ;
#65 = COORDINATED_UNIVERSAL_TIME_OFFSET ( 1, 0, .AHEAD. ) ;
#66 = CALENDAR_DATE ( 2021, 25, 11 ) ;
#67 = AXIS2_PLACEMENT_3D ( 'NONE', #82, #197, #87 ) ;
#68 = DESIGN_CONTEXT ( 'detailed design', #22, 'design' ) ;
#69 = EDGE_CURVE ( 'NONE', #91, #91, #51, .T. ) ;
#70 = DIRECTION ( 'NONE',  ( -3.491481338843133355E-15, 1.224646799147353207E-16, -1.000000000000000000 ) ) ;
#71 = AXIS2_PLACEMENT_3D ( 'NONE', #85, #146, #119 ) ;
#72 = DIRECTION ( 'NONE',  ( 4.275831445896959482E-31, 1.000000000000000000, 1.224646799147353207E-16 ) ) ;
#73 = AXIS2_PLACEMENT_3D ( 'NONE', #167, #13, #26 ) ;
#74 = ORIENTED_EDGE ( 'NONE', *, *, #188, .T. ) ;
#75 = VERTEX_POINT ( 'NONE', #191 ) ;
#76 = CC_DESIGN_DATE_AND_TIME_ASSIGNMENT ( #16, #1, ( #55 ) ) ;
#77 = ORIENTED_EDGE ( 'NONE', *, *, #140, .T. ) ;
#78 = DIRECTION ( 'NONE',  ( -3.491481338843133355E-15, 1.224646799147353207E-16, -1.000000000000000000 ) ) ;
#79 = EDGE_LOOP ( 'NONE', ( #151 ) ) ;
#80 = APPROVAL_STATUS ( 'not_yet_approved' ) ;
#81 = SECURITY_CLASSIFICATION_LEVEL ( 'unclassified' ) ;
#82 = CARTESIAN_POINT ( 'NONE',  ( 1.921981898160619986E-14, 1.124819836996389511E-32, 5.504774941164225055 ) ) ;
#83 = DATE_TIME_ROLE ( 'classification_date' ) ;
#84 = EDGE_CURVE ( 'NONE', #75, #75, #189, .T. ) ;
#85 = CARTESIAN_POINT ( 'NONE',  ( 1.921981898160619986E-14, -6.741405011723328509E-16, 5.504774941164225055 ) ) ;
#86 = MANIFOLD_SOLID_BREP ( 'Corps-Déplacer/Copier1[2]', #93 ) ;
#87 = DIRECTION ( 'NONE',  ( -4.275831445896958607E-31, -1.000000000000000000, -1.224646799147353207E-16 ) ) ;
#88 = PLANE ( 'NONE',  #130 ) ;
#89 = APPLICATION_CONTEXT ( 'configuration controlled 3d designs of mechanical parts and assemblies' ) ;
#90 = CC_DESIGN_PERSON_AND_ORGANIZATION_ASSIGNMENT ( #96, #19, ( #39 ) ) ;
#91 = VERTEX_POINT ( 'NONE', #111 ) ;
#92 = EDGE_LOOP ( 'NONE', ( #14 ) ) ;
#93 = CLOSED_SHELL ( 'NONE', ( #107, #20, #2 ) ) ;
#94 = EDGE_LOOP ( 'NONE', ( #50 ) ) ;
#95 = LOCAL_TIME ( 14, 53, 16.00000000000000000, #180 ) ;
#96 = PERSON_AND_ORGANIZATION ( #10, #42 ) ;
#97 = DATE_AND_TIME ( #34, #57 ) ;
#98 = CIRCLE ( 'NONE', #25, 1.499999999999996225 ) ;
#99 = CC_DESIGN_PERSON_AND_ORGANIZATION_ASSIGNMENT ( #54, #194, ( #149 ) ) ;
#100 = APPROVAL ( #80, 'UNSPECIFIED' ) ;
#101 = APPROVAL_ROLE ( '' ) ;
#102 = UNCERTAINTY_MEASURE_WITH_UNIT (LENGTH_MEASURE( 1.000000000000000082E-05 ), #30, 'distance_accuracy_value', 'NONE');
#103 = CC_DESIGN_SECURITY_CLASSIFICATION ( #149, ( #39 ) ) ;
#104 = DIRECTION ( 'NONE',  ( -3.491481338843133355E-15, 1.224646799147353207E-16, -1.000000000000000000 ) ) ;
#105 = DIRECTION ( 'NONE',  ( -4.275831445896958607E-31, -1.000000000000000000, -1.224646799147353207E-16 ) ) ;
#106 =( NAMED_UNIT ( * ) SI_UNIT ( $, .STERADIAN. ) SOLID_ANGLE_UNIT ( ) );
#107 = ADVANCED_FACE ( 'NONE', ( #144 ), #88, .F. ) ;
#108 =( NAMED_UNIT ( * ) PLANE_ANGLE_UNIT ( ) SI_UNIT ( $, .RADIAN. ) );
#109 = LOCAL_TIME ( 14, 53, 16.00000000000000000, #126 ) ;
#110 = CYLINDRICAL_SURFACE ( 'NONE', #203, 1.499999999999998224 ) ;
#111 = CARTESIAN_POINT ( 'NONE',  ( 1.921981898160619986E-14, 1.499999999999995559, 5.504774941164225055 ) ) ;
#112 = CARTESIAN_POINT ( 'NONE',  ( 1.921981898160619986E-14, 1.124819836996389511E-32, 5.504774941164225055 ) ) ;
#113 = ORIENTED_EDGE ( 'NONE', *, *, #69, .F. ) ;
#114 = AXIS2_PLACEMENT_3D ( 'NONE', #11, #78, #48 ) ;
#115 = APPROVAL ( #64, 'UNSPECIFIED' ) ;
#116 = APPROVAL_ROLE ( '' ) ;
#117 = CARTESIAN_POINT ( 'NONE',  ( -4.322097563070301031E-32, 1.515987752055525908E-33, -1.237897941766569384E-17 ) ) ;
#118 = AXIS2_PLACEMENT_3D ( 'NONE', #41, #70, #181 ) ;
#119 = DIRECTION ( 'NONE',  ( 0.0000000000000000000, 1.000000000000000000, 0.0000000000000000000 ) ) ;
#120 = DIRECTION ( 'NONE',  ( 0.0000000000000000000, 1.000000000000000000, 0.0000000000000000000 ) ) ;
#121 = APPROVAL_PERSON_ORGANIZATION ( #141, #40, #116 ) ;
#122 = FACE_OUTER_BOUND ( 'NONE', #24, .T. ) ;
#123 = FACE_OUTER_BOUND ( 'NONE', #45, .T. ) ;
#124 = AXIS2_PLACEMENT_3D ( 'NONE', #21, #132, #120 ) ;
#125 = LOCAL_TIME ( 14, 53, 16.00000000000000000, #65 ) ;
#126 = COORDINATED_UNIVERSAL_TIME_OFFSET ( 1, 0, .AHEAD. ) ;
#127 = PRODUCT_RELATED_PRODUCT_CATEGORY ( 'detail', '', ( #56 ) ) ;
#128 = APPROVAL_ROLE ( '' ) ;
#129 = DATE_AND_TIME ( #53, #32 ) ;
#130 = AXIS2_PLACEMENT_3D ( 'NONE', #145, #143, #105 ) ;
#131 = EDGE_CURVE ( 'NONE', #43, #43, #98, .T. ) ;
#132 = DIRECTION ( 'NONE',  ( -3.491481338843133355E-15, 1.224646799147353207E-16, -1.000000000000000000 ) ) ;
#133 = PLANE ( 'NONE',  #202 ) ;
#134 = VERTEX_POINT ( 'NONE', #200 ) ;
#135 = PERSON_AND_ORGANIZATION ( #10, #42 ) ;
#136 = DIRECTION ( 'NONE',  ( -3.491481338843133355E-15, 1.224646799147353207E-16, -1.000000000000000000 ) ) ;
#137 = CARTESIAN_POINT ( 'NONE',  ( 1.921981898160619986E-14, 1.499999999999995559, 5.504774941164225055 ) ) ;
#138 = ORIENTED_EDGE ( 'NONE', *, *, #84, .T. ) ;
#139 = PERSON_AND_ORGANIZATION ( #10, #42 ) ;
#140 = EDGE_CURVE ( 'NONE', #134, #134, #184, .T. ) ;
#141 = PERSON_AND_ORGANIZATION ( #10, #42 ) ;
#142 = DIRECTION ( 'NONE',  ( 3.491481338843133355E-15, -1.224646799147353207E-16, 1.000000000000000000 ) ) ;
#143 = DIRECTION ( 'NONE',  ( 3.491481338843133355E-15, -1.224646799147353207E-16, 1.000000000000000000 ) ) ;
#144 = FACE_OUTER_BOUND ( 'NONE', #44, .T. ) ;
#145 = CARTESIAN_POINT ( 'NONE',  ( -2.161048781535150516E-32, 7.579938760277629538E-34, -6.189489708832846918E-18 ) ) ;
#146 = DIRECTION ( 'NONE',  ( -3.491481338843133355E-15, 1.224646799147353207E-16, -1.000000000000000000 ) ) ;
#147 = MANIFOLD_SOLID_BREP ( 'Corps-Déplacer/Copier1[1]', #182 ) ;
#148 = EDGE_LOOP ( 'NONE', ( #138 ) ) ;
#149 = SECURITY_CLASSIFICATION ( '', '', #81 ) ;
#150 = PLANE ( 'NONE',  #114 ) ;
#151 = ORIENTED_EDGE ( 'NONE', *, *, #69, .T. ) ;
#152 = ADVANCED_BREP_SHAPE_REPRESENTATION ( '961337', ( #147, #86, #73 ), #160 ) ;
#153 = APPLICATION_PROTOCOL_DEFINITION ( 'international standard', 'config_control_design', 1994, #89 ) ;
#154 = EDGE_LOOP ( 'NONE', ( #174 ) ) ;
#155 = CC_DESIGN_APPROVAL ( #115, ( #55 ) ) ;
#156 = FACE_OUTER_BOUND ( 'NONE', #92, .T. ) ;
#157 = CALENDAR_DATE ( 2021, 25, 11 ) ;
#158 = APPROVAL_DATE_TIME ( #37, #115 ) ;
#159 = PLANE ( 'NONE',  #67 ) ;
#160 =( GEOMETRIC_REPRESENTATION_CONTEXT ( 3 ) GLOBAL_UNCERTAINTY_ASSIGNED_CONTEXT ( ( #102 ) ) GLOBAL_UNIT_ASSIGNED_CONTEXT ( ( #30, #108, #106 ) ) REPRESENTATION_CONTEXT ( 'NONE', 'WORKASPACE' ) );
#161 = PERSON_AND_ORGANIZATION_ROLE ( 'design_supplier' ) ;
#162 = PERSON_AND_ORGANIZATION ( #10, #42 ) ;
#163 = CIRCLE ( 'NONE', #124, 1.200000000000000178 ) ;
#164 = DIRECTION ( 'NONE',  ( 0.0000000000000000000, 1.000000000000000000, 0.0000000000000000000 ) ) ;
#165 = VERTEX_POINT ( 'NONE', #171 ) ;
#166 = ORIENTED_EDGE ( 'NONE', *, *, #131, .F. ) ;
#167 = CARTESIAN_POINT ( 'NONE',  ( 0.0000000000000000000, 0.0000000000000000000, 0.0000000000000000000 ) ) ;
#168 = CARTESIAN_POINT ( 'NONE',  ( 0.0000000000000000000, 0.0000000000000000000, 0.0000000000000000000 ) ) ;
#169 = CC_DESIGN_DATE_AND_TIME_ASSIGNMENT ( #97, #83, ( #149 ) ) ;
#170 = DIRECTION ( 'NONE',  ( -4.275831445896958607E-31, -1.000000000000000000, -1.224646799147353207E-16 ) ) ;
#171 = CARTESIAN_POINT ( 'NONE',  ( 1.326762908760390423E-13, 1.199999999999995515, 38.00000000000000000 ) ) ;
#172 = EDGE_LOOP ( 'NONE', ( #12 ) ) ;
#173 = AXIS2_PLACEMENT_3D ( 'NONE', #5, #183, #164 ) ;
#174 = ORIENTED_EDGE ( 'NONE', *, *, #131, .T. ) ;
#175 = APPROVAL_DATE_TIME ( #49, #100 ) ;
#176 = DIRECTION ( 'NONE',  ( 0.0000000000000000000, -1.000000000000000000, 0.0000000000000000000 ) ) ;
#177 = COORDINATED_UNIVERSAL_TIME_OFFSET ( 1, 0, .AHEAD. ) ;
#178 = APPLICATION_PROTOCOL_DEFINITION ( 'international standard', 'config_control_design', 1994, #22 ) ;
#179 = ADVANCED_FACE ( 'NONE', ( #4, #58 ), #6, .T. ) ;
#180 = COORDINATED_UNIVERSAL_TIME_OFFSET ( 1, 0, .AHEAD. ) ;
#181 = DIRECTION ( 'NONE',  ( 0.0000000000000000000, 1.000000000000000000, 0.0000000000000000000 ) ) ;
#182 = CLOSED_SHELL ( 'NONE', ( #36, #17, #179, #199 ) ) ;
#183 = DIRECTION ( 'NONE',  ( -3.491481338843133355E-15, 1.224646799147353207E-16, -1.000000000000000000 ) ) ;
#184 = CIRCLE ( 'NONE', #15, 0.02500000000000006384 ) ;
#185 = MECHANICAL_CONTEXT ( 'NONE', #89, 'mechanical' ) ;
#186 = DIRECTION ( 'NONE',  ( 3.491481338843133355E-15, -1.224646799147353207E-16, 1.000000000000000000 ) ) ;
#187 = FACE_OUTER_BOUND ( 'NONE', #148, .T. ) ;
#188 = EDGE_CURVE ( 'NONE', #165, #165, #163, .T. ) ;
#189 = CIRCLE ( 'NONE', #118, 1.500000000000000222 ) ;
#190 = FACE_BOUND ( 'NONE', #94, .T. ) ;
#191 = CARTESIAN_POINT ( 'NONE',  ( 1.316288464743861212E-13, 1.499999999999995781, 37.69999999999999574 ) ) ;
#192 = CONICAL_SURFACE ( 'NONE', #46, 1.499999999999996225, 0.2617993877991428020 ) ;
#193 = PERSON_AND_ORGANIZATION ( #10, #42 ) ;
#194 = PERSON_AND_ORGANIZATION_ROLE ( 'classification_officer' ) ;
#195 = COORDINATED_UNIVERSAL_TIME_OFFSET ( 1, 0, .AHEAD. ) ;
#196 = DIRECTION ( 'NONE',  ( -3.491481338843133355E-15, 1.224646799147353207E-16, -1.000000000000000000 ) ) ;
#197 = DIRECTION ( 'NONE',  ( 3.491481338843133355E-15, -1.224646799147353207E-16, 1.000000000000000000 ) ) ;
#198 = APPROVAL_PERSON_ORGANIZATION ( #193, #100, #128 ) ;
#199 = ADVANCED_FACE ( 'NONE', ( #156 ), #150, .F. ) ;
#200 = CARTESIAN_POINT ( 'NONE',  ( -3.253139701596058205E-32, 0.02500000000000006384, -9.317362419797303730E-18 ) ) ;
#201 = APPROVAL_STATUS ( 'not_yet_approved' ) ;
#202 = AXIS2_PLACEMENT_3D ( 'NONE', #112, #186, #170 ) ;
#203 = AXIS2_PLACEMENT_3D ( 'NONE', #168, #136, #62 ) ;
ENDSEC;
END-ISO-10303-21;
