ISO-10303-21;
HEADER;
FILE_DESCRIPTION (( 'STEP AP203' ),
    '1' );
FILE_NAME ('961336.step',
    '2021-11-25T13:42:40',
    ( '' ),
    ( '' ),
    'SwSTEP 2.0',
    'SolidWorks 2019',
    '' );
FILE_SCHEMA (( 'CONFIG_CONTROL_DESIGN' ));
ENDSEC;

DATA;
#1 = CIRCLE ( 'NONE', #5, 1.500000000000000222 ) ;
#2 = AXIS2_PLACEMENT_3D ( 'NONE', #116, #167, #102 ) ;
#3 = CARTESIAN_POINT ( 'NONE',  ( 0.0000000000000000000, 0.0000000000000000000, 0.0000000000000000000 ) ) ;
#4 = CALENDAR_DATE ( 2021, 25, 11 ) ;
#5 = AXIS2_PLACEMENT_3D ( 'NONE', #168, #49, #17 ) ;
#6 = CC_DESIGN_APPROVAL ( #111, ( #26 ) ) ;
#7 = COORDINATED_UNIVERSAL_TIME_OFFSET ( 1, 0, .AHEAD. ) ;
#8 = CC_DESIGN_PERSON_AND_ORGANIZATION_ASSIGNMENT ( #34, #101, ( #23 ) ) ;
#9 = APPROVAL_ROLE ( '' ) ;
#10 = CC_DESIGN_PERSON_AND_ORGANIZATION_ASSIGNMENT ( #147, #20, ( #107 ) ) ;
#11 = PERSON_AND_ORGANIZATION ( #177, #109 ) ;
#12 =( LENGTH_UNIT ( ) NAMED_UNIT ( * ) SI_UNIT ( .MILLI., .METRE. ) );
#13 = CIRCLE ( 'NONE', #153, 1.200000000000000178 ) ;
#14 = ORIENTED_EDGE ( 'NONE', *, *, #43, .F. ) ;
#15 = APPROVAL_PERSON_ORGANIZATION ( #164, #185, #95 ) ;
#16 = CARTESIAN_POINT ( 'NONE',  ( 1.316288464743861212E-13, 1.499999999999995781, 37.69999999999999574 ) ) ;
#17 = DIRECTION ( 'NONE',  ( 0.0000000000000000000, 1.000000000000000000, 0.0000000000000000000 ) ) ;
#18 = PERSON_AND_ORGANIZATION_ROLE ( 'creator' ) ;
#19 = PERSON_AND_ORGANIZATION_ROLE ( 'classification_officer' ) ;
#20 = PERSON_AND_ORGANIZATION_ROLE ( 'design_supplier' ) ;
#21 = CYLINDRICAL_SURFACE ( 'NONE', #145, 1.499999999999998224 ) ;
#22 = PLANE ( 'NONE',  #73 ) ;
#23 = PRODUCT ( '961336', '961336', '', ( #70 ) ) ;
#24 = ADVANCED_FACE ( 'NONE', ( #127, #139 ), #83, .T. ) ;
#25 = MANIFOLD_SOLID_BREP ( 'Corps-Déplacer/Copier1[2]', #184 ) ;
#26 = PRODUCT_DEFINITION ( 'UNKNOWN', '', #107, #41 ) ;
#27 = LOCAL_TIME ( 14, 42, 40.00000000000000000, #7 ) ;
#28 = PLANE ( 'NONE',  #174 ) ;
#29 = ADVANCED_FACE ( 'NONE', ( #50 ), #84, .F. ) ;
#30 = EDGE_CURVE ( 'NONE', #201, #201, #13, .T. ) ;
#31 = APPROVAL_PERSON_ORGANIZATION ( #193, #61, #176 ) ;
#32 = DIRECTION ( 'NONE',  ( 4.275831445896958607E-31, 1.000000000000000000, 1.224646799147353207E-16 ) ) ;
#33 = ADVANCED_FACE ( 'NONE', ( #203 ), #28, .T. ) ;
#34 = PERSON_AND_ORGANIZATION ( #177, #109 ) ;
#35 = DIRECTION ( 'NONE',  ( 3.491481338843133355E-15, -1.224646799147353207E-16, 1.000000000000000000 ) ) ;
#36 = VERTEX_POINT ( 'NONE', #202 ) ;
#37 = AXIS2_PLACEMENT_3D ( 'NONE', #47, #186, #160 ) ;
#38 =( GEOMETRIC_REPRESENTATION_CONTEXT ( 3 ) GLOBAL_UNCERTAINTY_ASSIGNED_CONTEXT ( ( #129 ) ) GLOBAL_UNIT_ASSIGNED_CONTEXT ( ( #12, #121, #136 ) ) REPRESENTATION_CONTEXT ( 'NONE', 'WORKASPACE' ) );
#39 = COORDINATED_UNIVERSAL_TIME_OFFSET ( 1, 0, .AHEAD. ) ;
#40 = FACE_BOUND ( 'NONE', #141, .T. ) ;
#41 = DESIGN_CONTEXT ( 'detailed design', #103, 'design' ) ;
#42 = DIRECTION ( 'NONE',  ( 0.0000000000000000000, 1.000000000000000000, 0.0000000000000000000 ) ) ;
#43 = EDGE_CURVE ( 'NONE', #126, #126, #198, .T. ) ;
#44 = COORDINATED_UNIVERSAL_TIME_OFFSET ( 1, 0, .AHEAD. ) ;
#45 = CC_DESIGN_APPROVAL ( #185, ( #107 ) ) ;
#46 = EDGE_LOOP ( 'NONE', ( #142 ) ) ;
#47 = CARTESIAN_POINT ( 'NONE',  ( 1.326762908760390423E-13, -4.653657836759941941E-15, 38.00000000000000000 ) ) ;
#48 = EDGE_LOOP ( 'NONE', ( #66 ) ) ;
#49 = DIRECTION ( 'NONE',  ( -3.491481338843133355E-15, 1.224646799147353207E-16, -1.000000000000000000 ) ) ;
#50 = FACE_OUTER_BOUND ( 'NONE', #96, .T. ) ;
#51 = CARTESIAN_POINT ( 'NONE',  ( 1.921981898160620302E-14, 1.499999999999995559, 5.504774941164225943 ) ) ;
#52 = FACE_OUTER_BOUND ( 'NONE', #200, .T. ) ;
#53 = APPROVAL_STATUS ( 'not_yet_approved' ) ;
#54 = PLANE ( 'NONE',  #183 ) ;
#55 = LOCAL_TIME ( 14, 42, 40.00000000000000000, #189 ) ;
#56 = DIRECTION ( 'NONE',  ( 0.0000000000000000000, 0.0000000000000000000, 1.000000000000000000 ) ) ;
#57 = PRODUCT_RELATED_PRODUCT_CATEGORY ( 'detail', '', ( #23 ) ) ;
#58 = DATE_AND_TIME ( #79, #192 ) ;
#59 = DATE_AND_TIME ( #4, #55 ) ;
#60 = AXIS2_PLACEMENT_3D ( 'NONE', #76, #56, #181 ) ;
#61 = APPROVAL ( #53, 'UNSPECIFIED' ) ;
#62 = SECURITY_CLASSIFICATION_LEVEL ( 'unclassified' ) ;
#63 = EDGE_LOOP ( 'NONE', ( #97 ) ) ;
#64 = ADVANCED_FACE ( 'NONE', ( #52 ), #54, .F. ) ;
#65 = LOCAL_TIME ( 14, 42, 40.00000000000000000, #39 ) ;
#66 = ORIENTED_EDGE ( 'NONE', *, *, #30, .T. ) ;
#67 = ORIENTED_EDGE ( 'NONE', *, *, #43, .T. ) ;
#68 = CARTESIAN_POINT ( 'NONE',  ( 1.921981898160620302E-14, -6.741405011723329495E-16, 5.504774941164225943 ) ) ;
#69 = DIRECTION ( 'NONE',  ( -4.275831445896958607E-31, -1.000000000000000000, -1.224646799147353207E-16 ) ) ;
#70 = MECHANICAL_CONTEXT ( 'NONE', #82, 'mechanical' ) ;
#71 = ADVANCED_FACE ( 'NONE', ( #40, #180 ), #170, .T. ) ;
#72 = AXIS2_PLACEMENT_3D ( 'NONE', #75, #171, #194 ) ;
#73 = AXIS2_PLACEMENT_3D ( 'NONE', #151, #173, #90 ) ;
#74 = PERSON_AND_ORGANIZATION ( #177, #109 ) ;
#75 = CARTESIAN_POINT ( 'NONE',  ( 1.921981898160620302E-14, -6.741405011723329495E-16, 5.504774941164225943 ) ) ;
#76 = CARTESIAN_POINT ( 'NONE',  ( 0.0000000000000000000, 0.0000000000000000000, 0.0000000000000000000 ) ) ;
#77 = CC_DESIGN_PERSON_AND_ORGANIZATION_ASSIGNMENT ( #105, #92, ( #26 ) ) ;
#78 = SHAPE_DEFINITION_REPRESENTATION ( #172, #131 ) ;
#79 = CALENDAR_DATE ( 2021, 25, 11 ) ;
#80 = APPROVAL_DATE_TIME ( #146, #185 ) ;
#81 = EDGE_CURVE ( 'NONE', #162, #162, #1, .T. ) ;
#82 = APPLICATION_CONTEXT ( 'configuration controlled 3d designs of mechanical parts and assemblies' ) ;
#83 = CONICAL_SURFACE ( 'NONE', #37, 1.200000000000000178, 0.7853981633974457255 ) ;
#84 = PLANE ( 'NONE',  #119 ) ;
#85 = VERTEX_POINT ( 'NONE', #114 ) ;
#86 = CARTESIAN_POINT ( 'NONE',  ( 1.326762908760390423E-13, -4.653657836759941941E-15, 38.00000000000000000 ) ) ;
#87 = APPLICATION_PROTOCOL_DEFINITION ( 'international standard', 'config_control_design', 1994, #103 ) ;
#88 = FACE_OUTER_BOUND ( 'NONE', #46, .T. ) ;
#89 = CALENDAR_DATE ( 2021, 25, 11 ) ;
#90 = DIRECTION ( 'NONE',  ( -4.275831445896958607E-31, -1.000000000000000000, -1.224646799147353207E-16 ) ) ;
#91 = DIRECTION ( 'NONE',  ( -4.275831445896958607E-31, -1.000000000000000000, -1.224646799147353207E-16 ) ) ;
#92 = PERSON_AND_ORGANIZATION_ROLE ( 'creator' ) ;
#93 = APPROVAL_DATE_TIME ( #182, #61 ) ;
#94 = ORIENTED_EDGE ( 'NONE', *, *, #30, .F. ) ;
#95 = APPROVAL_ROLE ( '' ) ;
#96 = EDGE_LOOP ( 'NONE', ( #98 ) ) ;
#97 = ORIENTED_EDGE ( 'NONE', *, *, #81, .F. ) ;
#98 = ORIENTED_EDGE ( 'NONE', *, *, #196, .T. ) ;
#99 = CC_DESIGN_APPROVAL ( #61, ( #158 ) ) ;
#100 = DIRECTION ( 'NONE',  ( 3.491481338843133355E-15, -1.224646799147353207E-16, 1.000000000000000000 ) ) ;
#101 = PERSON_AND_ORGANIZATION_ROLE ( 'design_owner' ) ;
#102 = DIRECTION ( 'NONE',  ( 4.275831445896959482E-31, 1.000000000000000000, 1.224646799147353207E-16 ) ) ;
#103 = APPLICATION_CONTEXT ( 'configuration controlled 3d designs of mechanical parts and assemblies' ) ;
#104 = FACE_OUTER_BOUND ( 'NONE', #110, .T. ) ;
#105 = PERSON_AND_ORGANIZATION ( #177, #109 ) ;
#106 = DIRECTION ( 'NONE',  ( 0.0000000000000000000, -1.000000000000000000, 0.0000000000000000000 ) ) ;
#107 = PRODUCT_DEFINITION_FORMATION_WITH_SPECIFIED_SOURCE ( 'ANY', '', #23, .NOT_KNOWN. ) ;
#108 = ADVANCED_FACE ( 'NONE', ( #112 ), #22, .F. ) ;
#109 = ORGANIZATION ( 'UNSPECIFIED', 'UNSPECIFIED', '' ) ;
#110 = EDGE_LOOP ( 'NONE', ( #124 ) ) ;
#111 = APPROVAL ( #154, 'UNSPECIFIED' ) ;
#112 = FACE_OUTER_BOUND ( 'NONE', #125, .T. ) ;
#113 = CARTESIAN_POINT ( 'NONE',  ( 1.921981898160620302E-14, 1.124819836996389511E-32, 5.504774941164225943 ) ) ;
#114 = CARTESIAN_POINT ( 'NONE',  ( -3.253139701596058205E-32, 0.02500000000000006384, -9.317362419797303730E-18 ) ) ;
#115 = EDGE_LOOP ( 'NONE', ( #14 ) ) ;
#116 = CARTESIAN_POINT ( 'NONE',  ( -4.322097563070301031E-32, 1.515987752055525908E-33, -1.237897941766569384E-17 ) ) ;
#117 = DATE_TIME_ROLE ( 'creation_date' ) ;
#118 = DIRECTION ( 'NONE',  ( -3.491481338843133355E-15, 1.224646799147353207E-16, -1.000000000000000000 ) ) ;
#119 = AXIS2_PLACEMENT_3D ( 'NONE', #113, #100, #69 ) ;
#120 = CIRCLE ( 'NONE', #166, 1.499999999999996225 ) ;
#121 =( NAMED_UNIT ( * ) PLANE_ANGLE_UNIT ( ) SI_UNIT ( $, .RADIAN. ) );
#122 = CALENDAR_DATE ( 2021, 25, 11 ) ;
#123 = ADVANCED_FACE ( 'NONE', ( #104, #88 ), #21, .T. ) ;
#124 = ORIENTED_EDGE ( 'NONE', *, *, #196, .F. ) ;
#125 = EDGE_LOOP ( 'NONE', ( #157 ) ) ;
#126 = VERTEX_POINT ( 'NONE', #51 ) ;
#127 = FACE_OUTER_BOUND ( 'NONE', #63, .T. ) ;
#128 = LOCAL_TIME ( 14, 42, 40.00000000000000000, #175 ) ;
#129 = UNCERTAINTY_MEASURE_WITH_UNIT (LENGTH_MEASURE( 1.000000000000000082E-05 ), #12, 'distance_accuracy_value', 'NONE');
#130 = DATE_TIME_ROLE ( 'classification_date' ) ;
#131 = ADVANCED_BREP_SHAPE_REPRESENTATION ( '961336', ( #165, #25, #60 ), #38 ) ;
#132 = CALENDAR_DATE ( 2021, 25, 11 ) ;
#133 = CARTESIAN_POINT ( 'NONE',  ( 1.921981898160620302E-14, -6.741405011723329495E-16, 5.504774941164225943 ) ) ;
#134 = ORIENTED_EDGE ( 'NONE', *, *, #191, .F. ) ;
#135 = APPROVAL_DATE_TIME ( #58, #111 ) ;
#136 =( NAMED_UNIT ( * ) SI_UNIT ( $, .STERADIAN. ) SOLID_ANGLE_UNIT ( ) );
#137 = CC_DESIGN_PERSON_AND_ORGANIZATION_ASSIGNMENT ( #11, #19, ( #158 ) ) ;
#138 = EDGE_LOOP ( 'NONE', ( #67 ) ) ;
#139 = FACE_BOUND ( 'NONE', #48, .T. ) ;
#140 = CIRCLE ( 'NONE', #2, 0.02500000000000006384 ) ;
#141 = EDGE_LOOP ( 'NONE', ( #134 ) ) ;
#142 = ORIENTED_EDGE ( 'NONE', *, *, #81, .T. ) ;
#143 = DIRECTION ( 'NONE',  ( 3.491481338843133355E-15, -1.224646799147353207E-16, 1.000000000000000000 ) ) ;
#144 = DIRECTION ( 'NONE',  ( 0.0000000000000000000, 1.000000000000000000, 0.0000000000000000000 ) ) ;
#145 = AXIS2_PLACEMENT_3D ( 'NONE', #3, #195, #32 ) ;
#146 = DATE_AND_TIME ( #132, #128 ) ;
#147 = PERSON_AND_ORGANIZATION ( #177, #109 ) ;
#148 = CC_DESIGN_SECURITY_CLASSIFICATION ( #158, ( #107 ) ) ;
#149 = DIRECTION ( 'NONE',  ( -3.491481338843133355E-15, 1.224646799147353207E-16, -1.000000000000000000 ) ) ;
#150 = DATE_AND_TIME ( #89, #27 ) ;
#151 = CARTESIAN_POINT ( 'NONE',  ( -2.161048781535150516E-32, 7.579938760277629538E-34, -6.189489708832846918E-18 ) ) ;
#152 = APPLICATION_PROTOCOL_DEFINITION ( 'international standard', 'config_control_design', 1994, #82 ) ;
#153 = AXIS2_PLACEMENT_3D ( 'NONE', #86, #188, #144 ) ;
#154 = APPROVAL_STATUS ( 'not_yet_approved' ) ;
#155 = APPROVAL_STATUS ( 'not_yet_approved' ) ;
#156 = CARTESIAN_POINT ( 'NONE',  ( 1.921981898160620302E-14, 1.124819836996389511E-32, 5.504774941164225943 ) ) ;
#157 = ORIENTED_EDGE ( 'NONE', *, *, #191, .T. ) ;
#158 = SECURITY_CLASSIFICATION ( '', '', #62 ) ;
#159 = CARTESIAN_POINT ( 'NONE',  ( 1.326762908760390423E-13, 1.199999999999995515, 38.00000000000000000 ) ) ;
#160 = DIRECTION ( 'NONE',  ( 0.0000000000000000000, 1.000000000000000000, 0.0000000000000000000 ) ) ;
#161 = CARTESIAN_POINT ( 'NONE',  ( 1.326762908760390423E-13, 8.998558695971078593E-33, 38.00000000000000000 ) ) ;
#162 = VERTEX_POINT ( 'NONE', #16 ) ;
#163 = APPROVAL_PERSON_ORGANIZATION ( #190, #111, #9 ) ;
#164 = PERSON_AND_ORGANIZATION ( #177, #109 ) ;
#165 = MANIFOLD_SOLID_BREP ( 'Corps-Déplacer/Copier1[1]', #187 ) ;
#166 = AXIS2_PLACEMENT_3D ( 'NONE', #133, #149, #42 ) ;
#167 = DIRECTION ( 'NONE',  ( -3.491481338843133355E-15, 1.224646799147353207E-16, -1.000000000000000000 ) ) ;
#168 = CARTESIAN_POINT ( 'NONE',  ( 1.316288464743861212E-13, -4.616918432785521081E-15, 37.69999999999999574 ) ) ;
#169 = CC_DESIGN_DATE_AND_TIME_ASSIGNMENT ( #150, #130, ( #158 ) ) ;
#170 = CONICAL_SURFACE ( 'NONE', #179, 1.499999999999996225, 0.2617993877991427465 ) ;
#171 = DIRECTION ( 'NONE',  ( -3.491481338843133355E-15, 1.224646799147353207E-16, -1.000000000000000000 ) ) ;
#172 = PRODUCT_DEFINITION_SHAPE ( 'NONE', 'NONE',  #26 ) ;
#173 = DIRECTION ( 'NONE',  ( 3.491481338843133355E-15, -1.224646799147353207E-16, 1.000000000000000000 ) ) ;
#174 = AXIS2_PLACEMENT_3D ( 'NONE', #156, #143, #91 ) ;
#175 = COORDINATED_UNIVERSAL_TIME_OFFSET ( 1, 0, .AHEAD. ) ;
#176 = APPROVAL_ROLE ( '' ) ;
#177 = PERSON ( 'UNSPECIFIED', 'UNSPECIFIED', 'UNSPECIFIED', ('UNSPECIFIED'), ('UNSPECIFIED'), ('UNSPECIFIED') ) ;
#178 = DIRECTION ( 'NONE',  ( 4.275831445896958607E-31, 1.000000000000000000, 1.224646799147353207E-16 ) ) ;
#179 = AXIS2_PLACEMENT_3D ( 'NONE', #68, #35, #106 ) ;
#180 = FACE_OUTER_BOUND ( 'NONE', #138, .T. ) ;
#181 = DIRECTION ( 'NONE',  ( 1.000000000000000000, 0.0000000000000000000, 0.0000000000000000000 ) ) ;
#182 = DATE_AND_TIME ( #122, #65 ) ;
#183 = AXIS2_PLACEMENT_3D ( 'NONE', #161, #118, #178 ) ;
#184 = CLOSED_SHELL ( 'NONE', ( #108, #71, #33 ) ) ;
#185 = APPROVAL ( #155, 'UNSPECIFIED' ) ;
#186 = DIRECTION ( 'NONE',  ( -3.491481338843133355E-15, 1.224646799147353207E-16, -1.000000000000000000 ) ) ;
#187 = CLOSED_SHELL ( 'NONE', ( #29, #123, #24, #64 ) ) ;
#188 = DIRECTION ( 'NONE',  ( -3.491481338843133355E-15, 1.224646799147353207E-16, -1.000000000000000000 ) ) ;
#189 = COORDINATED_UNIVERSAL_TIME_OFFSET ( 1, 0, .AHEAD. ) ;
#190 = PERSON_AND_ORGANIZATION ( #177, #109 ) ;
#191 = EDGE_CURVE ( 'NONE', #85, #85, #140, .T. ) ;
#192 = LOCAL_TIME ( 14, 42, 40.00000000000000000, #44 ) ;
#193 = PERSON_AND_ORGANIZATION ( #177, #109 ) ;
#194 = DIRECTION ( 'NONE',  ( 0.0000000000000000000, 1.000000000000000000, 0.0000000000000000000 ) ) ;
#195 = DIRECTION ( 'NONE',  ( -3.491481338843133355E-15, 1.224646799147353207E-16, -1.000000000000000000 ) ) ;
#196 = EDGE_CURVE ( 'NONE', #36, #36, #120, .T. ) ;
#197 = CC_DESIGN_PERSON_AND_ORGANIZATION_ASSIGNMENT ( #74, #18, ( #107 ) ) ;
#198 = CIRCLE ( 'NONE', #72, 1.499999999999996225 ) ;
#199 = CC_DESIGN_DATE_AND_TIME_ASSIGNMENT ( #59, #117, ( #26 ) ) ;
#200 = EDGE_LOOP ( 'NONE', ( #94 ) ) ;
#201 = VERTEX_POINT ( 'NONE', #159 ) ;
#202 = CARTESIAN_POINT ( 'NONE',  ( 1.921981898160620302E-14, 1.499999999999995559, 5.504774941164225943 ) ) ;
#203 = FACE_OUTER_BOUND ( 'NONE', #115, .T. ) ;
ENDSEC;
END-ISO-10303-21;
