ISO-10303-21;
HEADER;
FILE_DESCRIPTION (( 'STEP AP203' ),
    '1' );
FILE_NAME ('961335.step',
    '2021-11-25T13:47:07',
    ( '' ),
    ( '' ),
    'SwSTEP 2.0',
    'SolidWorks 2019',
    '' );
FILE_SCHEMA (( 'CONFIG_CONTROL_DESIGN' ));
ENDSEC;

DATA;
#1 = ADVANCED_FACE ( 'NONE', ( #26 ), #189, .F. ) ;
#2 = FACE_OUTER_BOUND ( 'NONE', #154, .T. ) ;
#3 = EDGE_CURVE ( 'NONE', #6, #6, #131, .T. ) ;
#4 = DIRECTION ( 'NONE',  ( 0.0000000000000000000, -1.000000000000000000, 0.0000000000000000000 ) ) ;
#5 = CALENDAR_DATE ( 2021, 25, 11 ) ;
#6 = VERTEX_POINT ( 'NONE', #31 ) ;
#7 = DATE_TIME_ROLE ( 'creation_date' ) ;
#8 = DATE_TIME_ROLE ( 'classification_date' ) ;
#9 = PERSON_AND_ORGANIZATION ( #129, #167 ) ;
#10 = LOCAL_TIME ( 14, 47, 7.000000000000000000, #81 ) ;
#11 = FACE_BOUND ( 'NONE', #201, .T. ) ;
#12 = CC_DESIGN_PERSON_AND_ORGANIZATION_ASSIGNMENT ( #64, #161, ( #56 ) ) ;
#13 = DIRECTION ( 'NONE',  ( -3.491481338843133355E-15, 1.224646799147353207E-16, -1.000000000000000000 ) ) ;
#14 = CARTESIAN_POINT ( 'NONE',  ( 1.048250825157085510E-14, -3.676768950331980356E-16, 3.002309688713423519 ) ) ;
#15 = AXIS2_PLACEMENT_3D ( 'NONE', #202, #118, #186 ) ;
#16 = LOCAL_TIME ( 14, 47, 7.000000000000000000, #37 ) ;
#17 = ADVANCED_FACE ( 'NONE', ( #74 ), #184, .F. ) ;
#18 = APPROVAL_ROLE ( '' ) ;
#19 = CARTESIAN_POINT ( 'NONE',  ( 1.326762908760390423E-13, 1.199999999999995515, 38.00000000000000000 ) ) ;
#20 = PERSON_AND_ORGANIZATION_ROLE ( 'design_owner' ) ;
#21 = CIRCLE ( 'NONE', #53, 1.499999999999996003 ) ;
#22 = APPROVAL_PERSON_ORGANIZATION ( #120, #69, #180 ) ;
#23 = VERTEX_POINT ( 'NONE', #121 ) ;
#24 = SECURITY_CLASSIFICATION_LEVEL ( 'unclassified' ) ;
#25 = APPROVAL_STATUS ( 'not_yet_approved' ) ;
#26 = FACE_OUTER_BOUND ( 'NONE', #44, .T. ) ;
#27 = CC_DESIGN_PERSON_AND_ORGANIZATION_ASSIGNMENT ( #143, #193, ( #115 ) ) ;
#28 = AXIS2_PLACEMENT_3D ( 'NONE', #55, #45, #172 ) ;
#29 = LOCAL_TIME ( 14, 47, 7.000000000000000000, #65 ) ;
#30 = EDGE_LOOP ( 'NONE', ( #200 ) ) ;
#31 = CARTESIAN_POINT ( 'NONE',  ( 1.048250825157085510E-14, 1.499999999999995559, 3.002309688713423519 ) ) ;
#32 = ORIENTED_EDGE ( 'NONE', *, *, #76, .T. ) ;
#33 = CC_DESIGN_PERSON_AND_ORGANIZATION_ASSIGNMENT ( #51, #20, ( #95 ) ) ;
#34 = APPLICATION_PROTOCOL_DEFINITION ( 'international standard', 'config_control_design', 1994, #175 ) ;
#35 = MANIFOLD_SOLID_BREP ( 'Corps-Déplacer/Copier1[2]', #128 ) ;
#36 = CARTESIAN_POINT ( 'NONE',  ( 1.048250825157085510E-14, -3.676768950331980356E-16, 3.002309688713423519 ) ) ;
#37 = COORDINATED_UNIVERSAL_TIME_OFFSET ( 1, 0, .AHEAD. ) ;
#38 = CLOSED_SHELL ( 'NONE', ( #99, #92, #127, #17 ) ) ;
#39 = CARTESIAN_POINT ( 'NONE',  ( 0.0000000000000000000, 0.0000000000000000000, 0.0000000000000000000 ) ) ;
#40 = AXIS2_PLACEMENT_3D ( 'NONE', #39, #194, #52 ) ;
#41 = CC_DESIGN_APPROVAL ( #196, ( #56 ) ) ;
#42 = FACE_OUTER_BOUND ( 'NONE', #30, .T. ) ;
#43 = DIRECTION ( 'NONE',  ( -3.491481338843133355E-15, 1.224646799147353207E-16, -1.000000000000000000 ) ) ;
#44 = EDGE_LOOP ( 'NONE', ( #61 ) ) ;
#45 = DIRECTION ( 'NONE',  ( -3.491481338843133355E-15, 1.224646799147353207E-16, -1.000000000000000000 ) ) ;
#46 = DIRECTION ( 'NONE',  ( -4.275831445896958607E-31, -1.000000000000000000, -1.224646799147353207E-16 ) ) ;
#47 = ORIENTED_EDGE ( 'NONE', *, *, #105, .T. ) ;
#48 = CALENDAR_DATE ( 2021, 25, 11 ) ;
#49 = DIRECTION ( 'NONE',  ( -4.275831445896958607E-31, -1.000000000000000000, -1.224646799147353207E-16 ) ) ;
#50 = DATE_AND_TIME ( #106, #197 ) ;
#51 = PERSON_AND_ORGANIZATION ( #129, #167 ) ;
#52 = DIRECTION ( 'NONE',  ( 1.000000000000000000, 0.0000000000000000000, 0.0000000000000000000 ) ) ;
#53 = AXIS2_PLACEMENT_3D ( 'NONE', #14, #72, #183 ) ;
#54 = EDGE_CURVE ( 'NONE', #139, #139, #70, .T. ) ;
#55 = CARTESIAN_POINT ( 'NONE',  ( 1.326762908760390423E-13, -4.653657836759941941E-15, 38.00000000000000000 ) ) ;
#56 = SECURITY_CLASSIFICATION ( '', '', #24 ) ;
#57 = PRODUCT_RELATED_PRODUCT_CATEGORY ( 'detail', '', ( #95 ) ) ;
#58 = CARTESIAN_POINT ( 'NONE',  ( 1.048250825157085510E-14, -3.676768950331980356E-16, 3.002309688713423519 ) ) ;
#59 = APPROVAL ( #25, 'UNSPECIFIED' ) ;
#60 = CYLINDRICAL_SURFACE ( 'NONE', #15, 1.499999999999998002 ) ;
#61 = ORIENTED_EDGE ( 'NONE', *, *, #54, .T. ) ;
#62 = CARTESIAN_POINT ( 'NONE',  ( 1.316288464743861212E-13, 1.499999999999995781, 37.69999999999999574 ) ) ;
#63 = CC_DESIGN_PERSON_AND_ORGANIZATION_ASSIGNMENT ( #177, #94, ( #115 ) ) ;
#64 = PERSON_AND_ORGANIZATION ( #129, #167 ) ;
#65 = COORDINATED_UNIVERSAL_TIME_OFFSET ( 1, 0, .AHEAD. ) ;
#66 = CONICAL_SURFACE ( 'NONE', #141, 1.499999999999996003, 0.4363323129985759996 ) ;
#67 = APPLICATION_CONTEXT ( 'configuration controlled 3d designs of mechanical parts and assemblies' ) ;
#68 = AXIS2_PLACEMENT_3D ( 'NONE', #185, #151, #46 ) ;
#69 = APPROVAL ( #108, 'UNSPECIFIED' ) ;
#70 = CIRCLE ( 'NONE', #112, 0.1000000000000000472 ) ;
#71 = ORIENTED_EDGE ( 'NONE', *, *, #3, .F. ) ;
#72 = DIRECTION ( 'NONE',  ( -3.491481338843133355E-15, 1.224646799147353207E-16, -1.000000000000000000 ) ) ;
#73 = ORIENTED_EDGE ( 'NONE', *, *, #76, .F. ) ;
#74 = FACE_OUTER_BOUND ( 'NONE', #199, .T. ) ;
#75 = DIRECTION ( 'NONE',  ( 3.491481338843133355E-15, -1.224646799147353207E-16, 1.000000000000000000 ) ) ;
#76 = EDGE_CURVE ( 'NONE', #23, #23, #21, .T. ) ;
#77 = PERSON_AND_ORGANIZATION ( #129, #167 ) ;
#78 =( NAMED_UNIT ( * ) PLANE_ANGLE_UNIT ( ) SI_UNIT ( $, .RADIAN. ) );
#79 = DATE_AND_TIME ( #124, #10 ) ;
#80 = COORDINATED_UNIVERSAL_TIME_OFFSET ( 1, 0, .AHEAD. ) ;
#81 = COORDINATED_UNIVERSAL_TIME_OFFSET ( 1, 0, .AHEAD. ) ;
#82 = FACE_OUTER_BOUND ( 'NONE', #182, .T. ) ;
#83 = AXIS2_PLACEMENT_3D ( 'NONE', #130, #198, #114 ) ;
#84 = CC_DESIGN_APPROVAL ( #69, ( #115 ) ) ;
#85 = EDGE_LOOP ( 'NONE', ( #73 ) ) ;
#86 = VERTEX_POINT ( 'NONE', #19 ) ;
#87 = ORIENTED_EDGE ( 'NONE', *, *, #164, .T. ) ;
#88 = PLANE ( 'NONE',  #83 ) ;
#89 = CC_DESIGN_APPROVAL ( #59, ( #146 ) ) ;
#90 = COORDINATED_UNIVERSAL_TIME_OFFSET ( 1, 0, .AHEAD. ) ;
#91 = CC_DESIGN_DATE_AND_TIME_ASSIGNMENT ( #50, #8, ( #56 ) ) ;
#92 = ADVANCED_FACE ( 'NONE', ( #152, #103 ), #60, .T. ) ;
#93 = CARTESIAN_POINT ( 'NONE',  ( 1.048250825157085510E-14, 1.124819836996389648E-32, 3.002309688713423519 ) ) ;
#94 = PERSON_AND_ORGANIZATION_ROLE ( 'creator' ) ;
#95 = PRODUCT ( '961335', '961335', '', ( #110 ) ) ;
#96 = CONICAL_SURFACE ( 'NONE', #28, 1.200000000000000178, 0.7853981633974457255 ) ;
#97 = DATE_AND_TIME ( #48, #135 ) ;
#98 =( GEOMETRIC_REPRESENTATION_CONTEXT ( 3 ) GLOBAL_UNCERTAINTY_ASSIGNED_CONTEXT ( ( #149 ) ) GLOBAL_UNIT_ASSIGNED_CONTEXT ( ( #144, #78, #136 ) ) REPRESENTATION_CONTEXT ( 'NONE', 'WORKASPACE' ) );
#99 = ADVANCED_FACE ( 'NONE', ( #42 ), #88, .F. ) ;
#100 = CC_DESIGN_DATE_AND_TIME_ASSIGNMENT ( #145, #7, ( #146 ) ) ;
#101 = CARTESIAN_POINT ( 'NONE',  ( 1.326762908760390423E-13, -4.653657836759941941E-15, 38.00000000000000000 ) ) ;
#102 = CARTESIAN_POINT ( 'NONE',  ( -4.275831445896960358E-32, 1.499759782661858292E-33, -1.224646799147353731E-17 ) ) ;
#103 = FACE_OUTER_BOUND ( 'NONE', #104, .T. ) ;
#104 = EDGE_LOOP ( 'NONE', ( #87 ) ) ;
#105 = EDGE_CURVE ( 'NONE', #86, #86, #178, .T. ) ;
#106 = CALENDAR_DATE ( 2021, 25, 11 ) ;
#107 = DIRECTION ( 'NONE',  ( -3.491481338843133355E-15, 1.224646799147353207E-16, -1.000000000000000000 ) ) ;
#108 = APPROVAL_STATUS ( 'not_yet_approved' ) ;
#109 = DATE_AND_TIME ( #122, #29 ) ;
#110 = MECHANICAL_CONTEXT ( 'NONE', #67, 'mechanical' ) ;
#111 = PERSON_AND_ORGANIZATION ( #129, #167 ) ;
#112 = AXIS2_PLACEMENT_3D ( 'NONE', #102, #166, #153 ) ;
#113 = CC_DESIGN_PERSON_AND_ORGANIZATION_ASSIGNMENT ( #111, #170, ( #146 ) ) ;
#114 = DIRECTION ( 'NONE',  ( -4.275831445896958607E-31, -1.000000000000000000, -1.224646799147353207E-16 ) ) ;
#115 = PRODUCT_DEFINITION_FORMATION_WITH_SPECIFIED_SOURCE ( 'ANY', '', #95, .NOT_KNOWN. ) ;
#116 = DIRECTION ( 'NONE',  ( 0.0000000000000000000, 1.000000000000000000, 0.0000000000000000000 ) ) ;
#117 = ORIENTED_EDGE ( 'NONE', *, *, #105, .F. ) ;
#118 = DIRECTION ( 'NONE',  ( -3.491481338843133355E-15, 1.224646799147353207E-16, -1.000000000000000000 ) ) ;
#119 = EDGE_LOOP ( 'NONE', ( #132 ) ) ;
#120 = PERSON_AND_ORGANIZATION ( #129, #167 ) ;
#121 = CARTESIAN_POINT ( 'NONE',  ( 1.048250825157085510E-14, 1.499999999999995559, 3.002309688713423519 ) ) ;
#122 = CALENDAR_DATE ( 2021, 25, 11 ) ;
#123 = AXIS2_PLACEMENT_3D ( 'NONE', #137, #43, #203 ) ;
#124 = CALENDAR_DATE ( 2021, 25, 11 ) ;
#125 = PRODUCT_DEFINITION_SHAPE ( 'NONE', 'NONE',  #146 ) ;
#126 = APPROVAL_DATE_TIME ( #109, #196 ) ;
#127 = ADVANCED_FACE ( 'NONE', ( #82, #11 ), #96, .T. ) ;
#128 = CLOSED_SHELL ( 'NONE', ( #1, #181, #133 ) ) ;
#129 = PERSON ( 'UNSPECIFIED', 'UNSPECIFIED', 'UNSPECIFIED', ('UNSPECIFIED'), ('UNSPECIFIED'), ('UNSPECIFIED') ) ;
#130 = CARTESIAN_POINT ( 'NONE',  ( 1.048250825157085510E-14, 1.124819836996389648E-32, 3.002309688713423519 ) ) ;
#131 = CIRCLE ( 'NONE', #147, 1.499999999999996003 ) ;
#132 = ORIENTED_EDGE ( 'NONE', *, *, #54, .F. ) ;
#133 = ADVANCED_FACE ( 'NONE', ( #190 ), #157, .T. ) ;
#134 = EDGE_LOOP ( 'NONE', ( #71 ) ) ;
#135 = LOCAL_TIME ( 14, 47, 7.000000000000000000, #90 ) ;
#136 =( NAMED_UNIT ( * ) SI_UNIT ( $, .STERADIAN. ) SOLID_ANGLE_UNIT ( ) );
#137 = CARTESIAN_POINT ( 'NONE',  ( 1.326762908760390423E-13, 8.998558695971078593E-33, 38.00000000000000000 ) ) ;
#138 = DIRECTION ( 'NONE',  ( 0.0000000000000000000, 1.000000000000000000, 0.0000000000000000000 ) ) ;
#139 = VERTEX_POINT ( 'NONE', #188 ) ;
#140 = APPROVAL_DATE_TIME ( #79, #59 ) ;
#141 = AXIS2_PLACEMENT_3D ( 'NONE', #36, #155, #4 ) ;
#142 = DIRECTION ( 'NONE',  ( 0.0000000000000000000, 1.000000000000000000, 0.0000000000000000000 ) ) ;
#143 = PERSON_AND_ORGANIZATION ( #129, #167 ) ;
#144 =( LENGTH_UNIT ( ) NAMED_UNIT ( * ) SI_UNIT ( .MILLI., .METRE. ) );
#145 = DATE_AND_TIME ( #5, #16 ) ;
#146 = PRODUCT_DEFINITION ( 'UNKNOWN', '', #115, #162 ) ;
#147 = AXIS2_PLACEMENT_3D ( 'NONE', #58, #13, #116 ) ;
#148 = APPROVAL_PERSON_ORGANIZATION ( #9, #196, #18 ) ;
#149 = UNCERTAINTY_MEASURE_WITH_UNIT (LENGTH_MEASURE( 1.000000000000000082E-05 ), #144, 'distance_accuracy_value', 'NONE');
#150 = CIRCLE ( 'NONE', #192, 1.500000000000000222 ) ;
#151 = DIRECTION ( 'NONE',  ( 3.491481338843133355E-15, -1.224646799147353207E-16, 1.000000000000000000 ) ) ;
#152 = FACE_OUTER_BOUND ( 'NONE', #134, .T. ) ;
#153 = DIRECTION ( 'NONE',  ( 4.275831445896958607E-31, 1.000000000000000000, 1.224646799147353207E-16 ) ) ;
#154 = EDGE_LOOP ( 'NONE', ( #32 ) ) ;
#155 = DIRECTION ( 'NONE',  ( 3.491481338843133355E-15, -1.224646799147353207E-16, 1.000000000000000000 ) ) ;
#156 = AXIS2_PLACEMENT_3D ( 'NONE', #101, #163, #142 ) ;
#157 = PLANE ( 'NONE',  #187 ) ;
#158 = FACE_BOUND ( 'NONE', #119, .T. ) ;
#159 = APPLICATION_PROTOCOL_DEFINITION ( 'international standard', 'config_control_design', 1994, #67 ) ;
#160 = APPROVAL_DATE_TIME ( #97, #69 ) ;
#161 = PERSON_AND_ORGANIZATION_ROLE ( 'classification_officer' ) ;
#162 = DESIGN_CONTEXT ( 'detailed design', #175, 'design' ) ;
#163 = DIRECTION ( 'NONE',  ( -3.491481338843133355E-15, 1.224646799147353207E-16, -1.000000000000000000 ) ) ;
#164 = EDGE_CURVE ( 'NONE', #174, #174, #150, .T. ) ;
#165 = ORIENTED_EDGE ( 'NONE', *, *, #164, .F. ) ;
#166 = DIRECTION ( 'NONE',  ( -3.491481338843133355E-15, 1.224646799147353207E-16, -1.000000000000000000 ) ) ;
#167 = ORGANIZATION ( 'UNSPECIFIED', 'UNSPECIFIED', '' ) ;
#168 = CC_DESIGN_SECURITY_CLASSIFICATION ( #56, ( #115 ) ) ;
#169 = CARTESIAN_POINT ( 'NONE',  ( 1.316288464743861212E-13, -4.616918432785521081E-15, 37.69999999999999574 ) ) ;
#170 = PERSON_AND_ORGANIZATION_ROLE ( 'creator' ) ;
#171 = MANIFOLD_SOLID_BREP ( 'Corps-Déplacer/Copier1[1]', #38 ) ;
#172 = DIRECTION ( 'NONE',  ( 0.0000000000000000000, 1.000000000000000000, 0.0000000000000000000 ) ) ;
#173 = ADVANCED_BREP_SHAPE_REPRESENTATION ( '961335', ( #171, #35, #40 ), #98 ) ;
#174 = VERTEX_POINT ( 'NONE', #62 ) ;
#175 = APPLICATION_CONTEXT ( 'configuration controlled 3d designs of mechanical parts and assemblies' ) ;
#176 = APPROVAL_STATUS ( 'not_yet_approved' ) ;
#177 = PERSON_AND_ORGANIZATION ( #129, #167 ) ;
#178 = CIRCLE ( 'NONE', #156, 1.200000000000000178 ) ;
#179 = APPROVAL_PERSON_ORGANIZATION ( #77, #59, #191 ) ;
#180 = APPROVAL_ROLE ( '' ) ;
#181 = ADVANCED_FACE ( 'NONE', ( #158, #2 ), #66, .T. ) ;
#182 = EDGE_LOOP ( 'NONE', ( #165 ) ) ;
#183 = DIRECTION ( 'NONE',  ( 0.0000000000000000000, 1.000000000000000000, 0.0000000000000000000 ) ) ;
#184 = PLANE ( 'NONE',  #123 ) ;
#185 = CARTESIAN_POINT ( 'NONE',  ( -2.137915722948480179E-32, 7.498798913309291460E-34, -6.123233995736768655E-18 ) ) ;
#186 = DIRECTION ( 'NONE',  ( 4.275831445896959482E-31, 1.000000000000000000, 1.224646799147353207E-16 ) ) ;
#187 = AXIS2_PLACEMENT_3D ( 'NONE', #93, #75, #49 ) ;
#188 = CARTESIAN_POINT ( 'NONE',  ( 0.0000000000000000000, 0.1000000000000000472, 0.0000000000000000000 ) ) ;
#189 = PLANE ( 'NONE',  #68 ) ;
#190 = FACE_OUTER_BOUND ( 'NONE', #85, .T. ) ;
#191 = APPROVAL_ROLE ( '' ) ;
#192 = AXIS2_PLACEMENT_3D ( 'NONE', #169, #107, #138 ) ;
#193 = PERSON_AND_ORGANIZATION_ROLE ( 'design_supplier' ) ;
#194 = DIRECTION ( 'NONE',  ( 0.0000000000000000000, 0.0000000000000000000, 1.000000000000000000 ) ) ;
#195 = SHAPE_DEFINITION_REPRESENTATION ( #125, #173 ) ;
#196 = APPROVAL ( #176, 'UNSPECIFIED' ) ;
#197 = LOCAL_TIME ( 14, 47, 7.000000000000000000, #80 ) ;
#198 = DIRECTION ( 'NONE',  ( 3.491481338843133355E-15, -1.224646799147353207E-16, 1.000000000000000000 ) ) ;
#199 = EDGE_LOOP ( 'NONE', ( #117 ) ) ;
#200 = ORIENTED_EDGE ( 'NONE', *, *, #3, .T. ) ;
#201 = EDGE_LOOP ( 'NONE', ( #47 ) ) ;
#202 = CARTESIAN_POINT ( 'NONE',  ( 0.0000000000000000000, 0.0000000000000000000, 0.0000000000000000000 ) ) ;
#203 = DIRECTION ( 'NONE',  ( 4.275831445896958607E-31, 1.000000000000000000, 1.224646799147353207E-16 ) ) ;
ENDSEC;
END-ISO-10303-21;
