ISO-10303-21;
HEADER;
FILE_DESCRIPTION (( 'STEP AP203' ),
    '1' );
FILE_NAME ('961334.step',
    '2021-11-25T13:47:07',
    ( '' ),
    ( '' ),
    'SwSTEP 2.0',
    'SolidWorks 2019',
    '' );
FILE_SCHEMA (( 'CONFIG_CONTROL_DESIGN' ));
ENDSEC;

DATA;
#1 = DATE_AND_TIME ( #90, #171 ) ;
#2 = ADVANCED_FACE ( 'NONE', ( #74 ), #156, .F. ) ;
#3 = DIRECTION ( 'NONE',  ( 3.491481338843133355E-15, -1.224646799147353207E-16, 1.000000000000000000 ) ) ;
#4 = FACE_OUTER_BOUND ( 'NONE', #95, .T. ) ;
#5 = COORDINATED_UNIVERSAL_TIME_OFFSET ( 1, 0, .AHEAD. ) ;
#6 = APPROVAL_PERSON_ORGANIZATION ( #160, #38, #51 ) ;
#7 = EDGE_LOOP ( 'NONE', ( #31 ) ) ;
#8 = LOCAL_TIME ( 14, 47, 7.000000000000000000, #192 ) ;
#9 = EDGE_LOOP ( 'NONE', ( #75 ) ) ;
#10 = EDGE_CURVE ( 'NONE', #173, #173, #177, .T. ) ;
#11 = MECHANICAL_CONTEXT ( 'NONE', #185, 'mechanical' ) ;
#12 = ORIENTED_EDGE ( 'NONE', *, *, #19, .F. ) ;
#13 = VERTEX_POINT ( 'NONE', #172 ) ;
#14 =( LENGTH_UNIT ( ) NAMED_UNIT ( * ) SI_UNIT ( .MILLI., .METRE. ) );
#15 = FACE_BOUND ( 'NONE', #27, .T. ) ;
#16 = CONICAL_SURFACE ( 'NONE', #154, 1.200000000000000178, 0.7853981633974457255 ) ;
#17 = APPLICATION_CONTEXT ( 'configuration controlled 3d designs of mechanical parts and assemblies' ) ;
#18 = DATE_AND_TIME ( #43, #8 ) ;
#19 = EDGE_CURVE ( 'NONE', #46, #46, #92, .T. ) ;
#20 = CARTESIAN_POINT ( 'NONE',  ( 1.066969589892033632E-14, -3.742425538730765764E-16, 3.055922361726163494 ) ) ;
#21 = DIRECTION ( 'NONE',  ( 3.491481338843133355E-15, -1.224646799147353207E-16, 1.000000000000000000 ) ) ;
#22 = PERSON ( 'UNSPECIFIED', 'UNSPECIFIED', 'UNSPECIFIED', ('UNSPECIFIED'), ('UNSPECIFIED'), ('UNSPECIFIED') ) ;
#23 = AXIS2_PLACEMENT_3D ( 'NONE', #200, #45, #49 ) ;
#24 = APPROVAL_PERSON_ORGANIZATION ( #105, #136, #167 ) ;
#25 = DATE_AND_TIME ( #54, #158 ) ;
#26 = AXIS2_PLACEMENT_3D ( 'NONE', #67, #86, #189 ) ;
#27 = EDGE_LOOP ( 'NONE', ( #137 ) ) ;
#28 = CC_DESIGN_APPROVAL ( #38, ( #147 ) ) ;
#29 = ORIENTED_EDGE ( 'NONE', *, *, #10, .F. ) ;
#30 = DIRECTION ( 'NONE',  ( 1.000000000000000000, 0.0000000000000000000, 0.0000000000000000000 ) ) ;
#31 = ORIENTED_EDGE ( 'NONE', *, *, #10, .T. ) ;
#32 = EDGE_LOOP ( 'NONE', ( #157 ) ) ;
#33 = PRODUCT_DEFINITION ( 'UNKNOWN', '', #127, #57 ) ;
#34 = CC_DESIGN_SECURITY_CLASSIFICATION ( #147, ( #127 ) ) ;
#35 = CARTESIAN_POINT ( 'NONE',  ( 1.326762908760390423E-13, 1.199999999999995515, 38.00000000000000000 ) ) ;
#36 = APPROVAL_ROLE ( '' ) ;
#37 = DIRECTION ( 'NONE',  ( -4.275831445896958607E-31, -1.000000000000000000, -1.224646799147353207E-16 ) ) ;
#38 = APPROVAL ( #178, 'UNSPECIFIED' ) ;
#39 = PLANE ( 'NONE',  #61 ) ;
#40 = PERSON_AND_ORGANIZATION ( #22, #73 ) ;
#41 = DIRECTION ( 'NONE',  ( 0.0000000000000000000, 1.000000000000000000, 0.0000000000000000000 ) ) ;
#42 = MANIFOLD_SOLID_BREP ( 'Corps-Déplacer/Copier1[1]', #142 ) ;
#43 = CALENDAR_DATE ( 2021, 25, 11 ) ;
#44 = DIRECTION ( 'NONE',  ( 0.0000000000000000000, 0.0000000000000000000, 1.000000000000000000 ) ) ;
#45 = DIRECTION ( 'NONE',  ( -3.491481338843133355E-15, 1.224646799147353207E-16, -1.000000000000000000 ) ) ;
#46 = VERTEX_POINT ( 'NONE', #35 ) ;
#47 = PERSON_AND_ORGANIZATION_ROLE ( 'design_owner' ) ;
#48 = PERSON_AND_ORGANIZATION ( #22, #73 ) ;
#49 = DIRECTION ( 'NONE',  ( 0.0000000000000000000, 1.000000000000000000, 0.0000000000000000000 ) ) ;
#50 = CARTESIAN_POINT ( 'NONE',  ( 1.316288464743861212E-13, 1.499999999999995781, 37.69999999999999574 ) ) ;
#51 = APPROVAL_ROLE ( '' ) ;
#52 =( NAMED_UNIT ( * ) PLANE_ANGLE_UNIT ( ) SI_UNIT ( $, .RADIAN. ) );
#53 = UNCERTAINTY_MEASURE_WITH_UNIT (LENGTH_MEASURE( 1.000000000000000082E-05 ), #14, 'distance_accuracy_value', 'NONE');
#54 = CALENDAR_DATE ( 2021, 25, 11 ) ;
#55 = EDGE_CURVE ( 'NONE', #85, #85, #201, .T. ) ;
#56 = PERSON_AND_ORGANIZATION ( #22, #73 ) ;
#57 = DESIGN_CONTEXT ( 'detailed design', #17, 'design' ) ;
#58 = APPROVAL_PERSON_ORGANIZATION ( #56, #135, #36 ) ;
#59 = EDGE_LOOP ( 'NONE', ( #98 ) ) ;
#60 = DIRECTION ( 'NONE',  ( -3.491481338843133355E-15, 1.224646799147353207E-16, -1.000000000000000000 ) ) ;
#61 = AXIS2_PLACEMENT_3D ( 'NONE', #161, #144, #146 ) ;
#62 = ADVANCED_FACE ( 'NONE', ( #186, #113 ), #188, .T. ) ;
#63 = ADVANCED_FACE ( 'NONE', ( #180 ), #118, .F. ) ;
#64 = DIRECTION ( 'NONE',  ( -3.491481338843133355E-15, 1.224646799147353207E-16, -1.000000000000000000 ) ) ;
#65 = CARTESIAN_POINT ( 'NONE',  ( 1.066969589892033632E-14, -3.742425538730765764E-16, 3.055922361726163494 ) ) ;
#66 = DATE_TIME_ROLE ( 'classification_date' ) ;
#67 = CARTESIAN_POINT ( 'NONE',  ( -8.409538014437589939E-33, 2.949668868945281389E-34, -2.408587415570722537E-18 ) ) ;
#68 = CARTESIAN_POINT ( 'NONE',  ( 1.066969589892033632E-14, 1.499999999999995559, 3.055922361726163494 ) ) ;
#69 = DIRECTION ( 'NONE',  ( 0.0000000000000000000, -1.000000000000000000, 0.0000000000000000000 ) ) ;
#70 = ADVANCED_FACE ( 'NONE', ( #4, #100 ), #16, .T. ) ;
#71 = PRODUCT_DEFINITION_SHAPE ( 'NONE', 'NONE',  #33 ) ;
#72 = DATE_TIME_ROLE ( 'creation_date' ) ;
#73 = ORGANIZATION ( 'UNSPECIFIED', 'UNSPECIFIED', '' ) ;
#74 = FACE_OUTER_BOUND ( 'NONE', #155, .T. ) ;
#75 = ORIENTED_EDGE ( 'NONE', *, *, #140, .F. ) ;
#76 = CC_DESIGN_PERSON_AND_ORGANIZATION_ASSIGNMENT ( #193, #120, ( #147 ) ) ;
#77 = ORIENTED_EDGE ( 'NONE', *, *, #109, .T. ) ;
#78 = AXIS2_PLACEMENT_3D ( 'NONE', #99, #110, #81 ) ;
#79 = ORIENTED_EDGE ( 'NONE', *, *, #55, .T. ) ;
#80 = CARTESIAN_POINT ( 'NONE',  ( 1.326762908760390423E-13, -4.653657836759941941E-15, 38.00000000000000000 ) ) ;
#81 = DIRECTION ( 'NONE',  ( 4.275831445896958607E-31, 1.000000000000000000, 1.224646799147353207E-16 ) ) ;
#82 = CALENDAR_DATE ( 2021, 25, 11 ) ;
#83 = DIRECTION ( 'NONE',  ( 0.0000000000000000000, 1.000000000000000000, 0.0000000000000000000 ) ) ;
#84 = COORDINATED_UNIVERSAL_TIME_OFFSET ( 1, 0, .AHEAD. ) ;
#85 = VERTEX_POINT ( 'NONE', #114 ) ;
#86 = DIRECTION ( 'NONE',  ( -3.491481338843133355E-15, 1.224646799147353207E-16, -1.000000000000000000 ) ) ;
#87 = ADVANCED_FACE ( 'NONE', ( #176 ), #39, .T. ) ;
#88 = APPLICATION_PROTOCOL_DEFINITION ( 'international standard', 'config_control_design', 1994, #185 ) ;
#89 =( GEOMETRIC_REPRESENTATION_CONTEXT ( 3 ) GLOBAL_UNCERTAINTY_ASSIGNED_CONTEXT ( ( #53 ) ) GLOBAL_UNIT_ASSIGNED_CONTEXT ( ( #14, #52, #125 ) ) REPRESENTATION_CONTEXT ( 'NONE', 'WORKASPACE' ) );
#90 = CALENDAR_DATE ( 2021, 25, 11 ) ;
#91 = ADVANCED_FACE ( 'NONE', ( #130 ), #145, .F. ) ;
#92 = CIRCLE ( 'NONE', #23, 1.200000000000000178 ) ;
#93 = CIRCLE ( 'NONE', #26, 0.07499999999999980294 ) ;
#94 = EDGE_LOOP ( 'NONE', ( #96 ) ) ;
#95 = EDGE_LOOP ( 'NONE', ( #29 ) ) ;
#96 = ORIENTED_EDGE ( 'NONE', *, *, #140, .T. ) ;
#97 = EDGE_LOOP ( 'NONE', ( #77 ) ) ;
#98 = ORIENTED_EDGE ( 'NONE', *, *, #55, .F. ) ;
#99 = CARTESIAN_POINT ( 'NONE',  ( 1.326762908760390423E-13, 8.998558695971078593E-33, 38.00000000000000000 ) ) ;
#100 = FACE_BOUND ( 'NONE', #32, .T. ) ;
#101 = AXIS2_PLACEMENT_3D ( 'NONE', #20, #141, #111 ) ;
#102 = CC_DESIGN_PERSON_AND_ORGANIZATION_ASSIGNMENT ( #107, #169, ( #33 ) ) ;
#103 = SHAPE_DEFINITION_REPRESENTATION ( #71, #170 ) ;
#104 = DIRECTION ( 'NONE',  ( -3.491481338843133355E-15, 1.224646799147353207E-16, -1.000000000000000000 ) ) ;
#105 = PERSON_AND_ORGANIZATION ( #22, #73 ) ;
#106 = MANIFOLD_SOLID_BREP ( 'Corps-Déplacer/Copier1[2]', #152 ) ;
#107 = PERSON_AND_ORGANIZATION ( #22, #73 ) ;
#108 = ADVANCED_FACE ( 'NONE', ( #15, #203 ), #133, .T. ) ;
#109 = EDGE_CURVE ( 'NONE', #13, #13, #93, .T. ) ;
#110 = DIRECTION ( 'NONE',  ( -3.491481338843133355E-15, 1.224646799147353207E-16, -1.000000000000000000 ) ) ;
#111 = DIRECTION ( 'NONE',  ( 0.0000000000000000000, 1.000000000000000000, 0.0000000000000000000 ) ) ;
#112 = PERSON_AND_ORGANIZATION_ROLE ( 'creator' ) ;
#113 = FACE_OUTER_BOUND ( 'NONE', #7, .T. ) ;
#114 = CARTESIAN_POINT ( 'NONE',  ( 1.066969589892033632E-14, 1.499999999999995559, 3.055922361726163494 ) ) ;
#115 = CC_DESIGN_PERSON_AND_ORGANIZATION_ASSIGNMENT ( #40, #149, ( #127 ) ) ;
#116 = SECURITY_CLASSIFICATION_LEVEL ( 'unclassified' ) ;
#117 = AXIS2_PLACEMENT_3D ( 'NONE', #139, #197, #123 ) ;
#118 = PLANE ( 'NONE',  #78 ) ;
#119 = LOCAL_TIME ( 14, 47, 7.000000000000000000, #134 ) ;
#120 = PERSON_AND_ORGANIZATION_ROLE ( 'classification_officer' ) ;
#121 = EDGE_LOOP ( 'NONE', ( #12 ) ) ;
#122 = PRODUCT_RELATED_PRODUCT_CATEGORY ( 'detail', '', ( #150 ) ) ;
#123 = DIRECTION ( 'NONE',  ( -4.275831445896958607E-31, -1.000000000000000000, -1.224646799147353207E-16 ) ) ;
#124 = AXIS2_PLACEMENT_3D ( 'NONE', #65, #190, #198 ) ;
#125 =( NAMED_UNIT ( * ) SI_UNIT ( $, .STERADIAN. ) SOLID_ANGLE_UNIT ( ) );
#126 = CALENDAR_DATE ( 2021, 25, 11 ) ;
#127 = PRODUCT_DEFINITION_FORMATION_WITH_SPECIFIED_SOURCE ( 'ANY', '', #150, .NOT_KNOWN. ) ;
#128 = DIRECTION ( 'NONE',  ( 4.275831445896959482E-31, 1.000000000000000000, 1.224646799147353207E-16 ) ) ;
#129 = DATE_AND_TIME ( #82, #119 ) ;
#130 = FACE_OUTER_BOUND ( 'NONE', #97, .T. ) ;
#131 = VERTEX_POINT ( 'NONE', #68 ) ;
#132 = APPROVAL_STATUS ( 'not_yet_approved' ) ;
#133 = CONICAL_SURFACE ( 'NONE', #179, 1.499999999999996003, 0.4363323129985760551 ) ;
#134 = COORDINATED_UNIVERSAL_TIME_OFFSET ( 1, 0, .AHEAD. ) ;
#135 = APPROVAL ( #164, 'UNSPECIFIED' ) ;
#136 = APPROVAL ( #132, 'UNSPECIFIED' ) ;
#137 = ORIENTED_EDGE ( 'NONE', *, *, #109, .F. ) ;
#138 = CIRCLE ( 'NONE', #101, 1.499999999999996003 ) ;
#139 = CARTESIAN_POINT ( 'NONE',  ( 1.066969589892033632E-14, 1.124819836996389648E-32, 3.055922361726163494 ) ) ;
#140 = EDGE_CURVE ( 'NONE', #131, #131, #138, .T. ) ;
#141 = DIRECTION ( 'NONE',  ( -3.491481338843133355E-15, 1.224646799147353207E-16, -1.000000000000000000 ) ) ;
#142 = CLOSED_SHELL ( 'NONE', ( #2, #62, #70, #63 ) ) ;
#143 = AXIS2_PLACEMENT_3D ( 'NONE', #165, #3, #37 ) ;
#144 = DIRECTION ( 'NONE',  ( 3.491481338843133355E-15, -1.224646799147353207E-16, 1.000000000000000000 ) ) ;
#145 = PLANE ( 'NONE',  #143 ) ;
#146 = DIRECTION ( 'NONE',  ( -4.275831445896958607E-31, -1.000000000000000000, -1.224646799147353207E-16 ) ) ;
#147 = SECURITY_CLASSIFICATION ( '', '', #116 ) ;
#148 = AXIS2_PLACEMENT_3D ( 'NONE', #191, #44, #30 ) ;
#149 = PERSON_AND_ORGANIZATION_ROLE ( 'design_supplier' ) ;
#150 = PRODUCT ( '961334', '961334', '', ( #11 ) ) ;
#151 = CC_DESIGN_PERSON_AND_ORGANIZATION_ASSIGNMENT ( #48, #112, ( #127 ) ) ;
#152 = CLOSED_SHELL ( 'NONE', ( #91, #108, #87 ) ) ;
#153 = AXIS2_PLACEMENT_3D ( 'NONE', #175, #64, #128 ) ;
#154 = AXIS2_PLACEMENT_3D ( 'NONE', #80, #104, #41 ) ;
#155 = EDGE_LOOP ( 'NONE', ( #79 ) ) ;
#156 = PLANE ( 'NONE',  #117 ) ;
#157 = ORIENTED_EDGE ( 'NONE', *, *, #19, .T. ) ;
#158 = LOCAL_TIME ( 14, 47, 7.000000000000000000, #84 ) ;
#159 = APPLICATION_PROTOCOL_DEFINITION ( 'international standard', 'config_control_design', 1994, #17 ) ;
#160 = PERSON_AND_ORGANIZATION ( #22, #73 ) ;
#161 = CARTESIAN_POINT ( 'NONE',  ( 1.066969589892033632E-14, 1.124819836996389648E-32, 3.055922361726163494 ) ) ;
#162 = APPROVAL_DATE_TIME ( #1, #136 ) ;
#163 = CARTESIAN_POINT ( 'NONE',  ( 1.066969589892033632E-14, -3.742425538730765764E-16, 3.055922361726163494 ) ) ;
#164 = APPROVAL_STATUS ( 'not_yet_approved' ) ;
#165 = CARTESIAN_POINT ( 'NONE',  ( -4.204769007218794970E-33, 1.474834434472640695E-34, -1.204293707785361268E-18 ) ) ;
#166 = CC_DESIGN_DATE_AND_TIME_ASSIGNMENT ( #202, #66, ( #147 ) ) ;
#167 = APPROVAL_ROLE ( '' ) ;
#168 = CC_DESIGN_APPROVAL ( #136, ( #33 ) ) ;
#169 = PERSON_AND_ORGANIZATION_ROLE ( 'creator' ) ;
#170 = ADVANCED_BREP_SHAPE_REPRESENTATION ( '961334', ( #42, #106, #148 ), #89 ) ;
#171 = LOCAL_TIME ( 14, 47, 7.000000000000000000, #5 ) ;
#172 = CARTESIAN_POINT ( 'NONE',  ( 2.365919782978951696E-32, 0.07499999999999980294, 6.776263578034402713E-18 ) ) ;
#173 = VERTEX_POINT ( 'NONE', #50 ) ;
#174 = COORDINATED_UNIVERSAL_TIME_OFFSET ( 1, 0, .AHEAD. ) ;
#175 = CARTESIAN_POINT ( 'NONE',  ( 0.0000000000000000000, 0.0000000000000000000, 0.0000000000000000000 ) ) ;
#176 = FACE_OUTER_BOUND ( 'NONE', #9, .T. ) ;
#177 = CIRCLE ( 'NONE', #182, 1.500000000000000222 ) ;
#178 = APPROVAL_STATUS ( 'not_yet_approved' ) ;
#179 = AXIS2_PLACEMENT_3D ( 'NONE', #163, #21, #69 ) ;
#180 = FACE_OUTER_BOUND ( 'NONE', #121, .T. ) ;
#181 = APPROVAL_DATE_TIME ( #129, #38 ) ;
#182 = AXIS2_PLACEMENT_3D ( 'NONE', #195, #60, #83 ) ;
#183 = LOCAL_TIME ( 14, 47, 7.000000000000000000, #174 ) ;
#184 = CC_DESIGN_PERSON_AND_ORGANIZATION_ASSIGNMENT ( #187, #47, ( #150 ) ) ;
#185 = APPLICATION_CONTEXT ( 'configuration controlled 3d designs of mechanical parts and assemblies' ) ;
#186 = FACE_OUTER_BOUND ( 'NONE', #59, .T. ) ;
#187 = PERSON_AND_ORGANIZATION ( #22, #73 ) ;
#188 = CYLINDRICAL_SURFACE ( 'NONE', #153, 1.499999999999998002 ) ;
#189 = DIRECTION ( 'NONE',  ( 4.275831445896959482E-31, 1.000000000000000000, 1.224646799147353207E-16 ) ) ;
#190 = DIRECTION ( 'NONE',  ( -3.491481338843133355E-15, 1.224646799147353207E-16, -1.000000000000000000 ) ) ;
#191 = CARTESIAN_POINT ( 'NONE',  ( 0.0000000000000000000, 0.0000000000000000000, 0.0000000000000000000 ) ) ;
#192 = COORDINATED_UNIVERSAL_TIME_OFFSET ( 1, 0, .AHEAD. ) ;
#193 = PERSON_AND_ORGANIZATION ( #22, #73 ) ;
#194 = CC_DESIGN_DATE_AND_TIME_ASSIGNMENT ( #18, #72, ( #33 ) ) ;
#195 = CARTESIAN_POINT ( 'NONE',  ( 1.316288464743861212E-13, -4.616918432785521081E-15, 37.69999999999999574 ) ) ;
#196 = CC_DESIGN_APPROVAL ( #135, ( #127 ) ) ;
#197 = DIRECTION ( 'NONE',  ( 3.491481338843133355E-15, -1.224646799147353207E-16, 1.000000000000000000 ) ) ;
#198 = DIRECTION ( 'NONE',  ( 0.0000000000000000000, 1.000000000000000000, 0.0000000000000000000 ) ) ;
#199 = APPROVAL_DATE_TIME ( #25, #135 ) ;
#200 = CARTESIAN_POINT ( 'NONE',  ( 1.326762908760390423E-13, -4.653657836759941941E-15, 38.00000000000000000 ) ) ;
#201 = CIRCLE ( 'NONE', #124, 1.499999999999996003 ) ;
#202 = DATE_AND_TIME ( #126, #183 ) ;
#203 = FACE_OUTER_BOUND ( 'NONE', #94, .T. ) ;
ENDSEC;
END-ISO-10303-21;
