ISO-10303-21;
HEADER;
FILE_DESCRIPTION (( 'STEP AP203' ),
    '1' );
FILE_NAME ('961333.step',
    '2021-11-25T13:47:06',
    ( '' ),
    ( '' ),
    'SwSTEP 2.0',
    'SolidWorks 2019',
    '' );
FILE_SCHEMA (( 'CONFIG_CONTROL_DESIGN' ));
ENDSEC;

DATA;
#1 = AXIS2_PLACEMENT_3D ( 'NONE', #160, #16, #125 ) ;
#2 = ADVANCED_FACE ( 'NONE', ( #58 ), #73, .F. ) ;
#3 = EDGE_LOOP ( 'NONE', ( #170 ) ) ;
#4 = EDGE_LOOP ( 'NONE', ( #9 ) ) ;
#5 = LOCAL_TIME ( 14, 47, 6.000000000000000000, #32 ) ;
#6 = APPROVAL ( #173, 'UNSPECIFIED' ) ;
#7 = ADVANCED_BREP_SHAPE_REPRESENTATION ( '961333', ( #96, #164, #165 ), #34 ) ;
#8 = CALENDAR_DATE ( 2021, 25, 11 ) ;
#9 = ORIENTED_EDGE ( 'NONE', *, *, #68, .F. ) ;
#10 = CC_DESIGN_PERSON_AND_ORGANIZATION_ASSIGNMENT ( #92, #188, ( #147 ) ) ;
#11 = APPROVAL_PERSON_ORGANIZATION ( #43, #6, #110 ) ;
#12 = COORDINATED_UNIVERSAL_TIME_OFFSET ( 1, 0, .AHEAD. ) ;
#13 = CARTESIAN_POINT ( 'NONE',  ( 1.326762908760390423E-13, -4.653657836759941941E-15, 38.00000000000000000 ) ) ;
#14 = PERSON_AND_ORGANIZATION_ROLE ( 'creator' ) ;
#15 = PLANE ( 'NONE',  #57 ) ;
#16 = DIRECTION ( 'NONE',  ( -3.491481338843133355E-15, 1.224646799147353207E-16, -1.000000000000000000 ) ) ;
#17 = CC_DESIGN_DATE_AND_TIME_ASSIGNMENT ( #140, #181, ( #90 ) ) ;
#18 = LOCAL_TIME ( 14, 47, 6.000000000000000000, #60 ) ;
#19 = EDGE_LOOP ( 'NONE', ( #87 ) ) ;
#20 = EDGE_CURVE ( 'NONE', #130, #130, #179, .T. ) ;
#21 = AXIS2_PLACEMENT_3D ( 'NONE', #13, #63, #99 ) ;
#22 = APPLICATION_PROTOCOL_DEFINITION ( 'international standard', 'config_control_design', 1994, #136 ) ;
#23 = ADVANCED_FACE ( 'NONE', ( #51, #194 ), #46, .T. ) ;
#24 = EDGE_LOOP ( 'NONE', ( #55 ) ) ;
#25 = MECHANICAL_CONTEXT ( 'NONE', #136, 'mechanical' ) ;
#26 = CLOSED_SHELL ( 'NONE', ( #177, #23, #70 ) ) ;
#27 = APPROVAL_STATUS ( 'not_yet_approved' ) ;
#28 = DIRECTION ( 'NONE',  ( -4.275831445896958607E-31, -1.000000000000000000, -1.224646799147353207E-16 ) ) ;
#29 = DATE_TIME_ROLE ( 'classification_date' ) ;
#30 = FACE_OUTER_BOUND ( 'NONE', #19, .T. ) ;
#31 = EDGE_CURVE ( 'NONE', #145, #145, #54, .T. ) ;
#32 = COORDINATED_UNIVERSAL_TIME_OFFSET ( 1, 0, .AHEAD. ) ;
#33 = DIRECTION ( 'NONE',  ( -3.491481338843133355E-15, 1.224646799147353207E-16, -1.000000000000000000 ) ) ;
#34 =( GEOMETRIC_REPRESENTATION_CONTEXT ( 3 ) GLOBAL_UNCERTAINTY_ASSIGNED_CONTEXT ( ( #40 ) ) GLOBAL_UNIT_ASSIGNED_CONTEXT ( ( #166, #84, #146 ) ) REPRESENTATION_CONTEXT ( 'NONE', 'WORKASPACE' ) );
#35 = CARTESIAN_POINT ( 'NONE',  ( -1.710332578358794379E-32, 5.999039130647469090E-34, -4.898587196589444352E-18 ) ) ;
#36 = PRODUCT_RELATED_PRODUCT_CATEGORY ( 'detail', '', ( #147 ) ) ;
#37 = CC_DESIGN_SECURITY_CLASSIFICATION ( #114, ( #76 ) ) ;
#38 = PERSON ( 'UNSPECIFIED', 'UNSPECIFIED', 'UNSPECIFIED', ('UNSPECIFIED'), ('UNSPECIFIED'), ('UNSPECIFIED') ) ;
#39 = AXIS2_PLACEMENT_3D ( 'NONE', #127, #85, #80 ) ;
#40 = UNCERTAINTY_MEASURE_WITH_UNIT (LENGTH_MEASURE( 1.000000000000000082E-05 ), #166, 'distance_accuracy_value', 'NONE');
#41 = CC_DESIGN_PERSON_AND_ORGANIZATION_ASSIGNMENT ( #156, #14, ( #76 ) ) ;
#42 = CLOSED_SHELL ( 'NONE', ( #131, #171, #137, #2 ) ) ;
#43 = PERSON_AND_ORGANIZATION ( #38, #149 ) ;
#44 = DIRECTION ( 'NONE',  ( 0.0000000000000000000, 1.000000000000000000, 0.0000000000000000000 ) ) ;
#45 = DIRECTION ( 'NONE',  ( 3.491481338843133355E-15, -1.224646799147353207E-16, 1.000000000000000000 ) ) ;
#46 = CONICAL_SURFACE ( 'NONE', #199, 1.499999999999996003, 0.4363323129985759441 ) ;
#47 = DIRECTION ( 'NONE',  ( 3.491481338843133355E-15, -1.224646799147353207E-16, 1.000000000000000000 ) ) ;
#48 = APPROVAL ( #27, 'UNSPECIFIED' ) ;
#49 = APPROVAL_DATE_TIME ( #97, #6 ) ;
#50 = CARTESIAN_POINT ( 'NONE',  ( 1.093175860520960687E-14, -3.834344762489065729E-16, 3.130980103943998838 ) ) ;
#51 = FACE_BOUND ( 'NONE', #4, .T. ) ;
#52 = EDGE_CURVE ( 'NONE', #66, #66, #95, .T. ) ;
#53 = CARTESIAN_POINT ( 'NONE',  ( 2.672764710092195646E-48, 0.04000000000000025757, 0.0000000000000000000 ) ) ;
#54 = CIRCLE ( 'NONE', #39, 1.500000000000000222 ) ;
#55 = ORIENTED_EDGE ( 'NONE', *, *, #132, .T. ) ;
#56 = CC_DESIGN_PERSON_AND_ORGANIZATION_ASSIGNMENT ( #144, #138, ( #90 ) ) ;
#57 = AXIS2_PLACEMENT_3D ( 'NONE', #183, #45, #113 ) ;
#58 = FACE_OUTER_BOUND ( 'NONE', #120, .T. ) ;
#59 = EDGE_LOOP ( 'NONE', ( #88 ) ) ;
#60 = COORDINATED_UNIVERSAL_TIME_OFFSET ( 1, 0, .AHEAD. ) ;
#61 = CARTESIAN_POINT ( 'NONE',  ( 1.093175860520960687E-14, -3.834344762489065729E-16, 3.130980103943998838 ) ) ;
#62 = COORDINATED_UNIVERSAL_TIME_OFFSET ( 1, 0, .AHEAD. ) ;
#63 = DIRECTION ( 'NONE',  ( -3.491481338843133355E-15, 1.224646799147353207E-16, -1.000000000000000000 ) ) ;
#64 = PERSON_AND_ORGANIZATION ( #38, #149 ) ;
#65 = DIRECTION ( 'NONE',  ( 0.0000000000000000000, 1.000000000000000000, 0.0000000000000000000 ) ) ;
#66 = VERTEX_POINT ( 'NONE', #134 ) ;
#67 = DIRECTION ( 'NONE',  ( -3.491481338843133355E-15, 1.224646799147353207E-16, -1.000000000000000000 ) ) ;
#68 = EDGE_CURVE ( 'NONE', #190, #190, #119, .T. ) ;
#69 = APPROVAL_DATE_TIME ( #103, #111 ) ;
#70 = ADVANCED_FACE ( 'NONE', ( #148 ), #101, .T. ) ;
#71 = AXIS2_PLACEMENT_3D ( 'NONE', #139, #174, #44 ) ;
#72 = AXIS2_PLACEMENT_3D ( 'NONE', #35, #182, #94 ) ;
#73 = PLANE ( 'NONE',  #161 ) ;
#74 = APPROVAL_DATE_TIME ( #81, #48 ) ;
#75 = FACE_OUTER_BOUND ( 'NONE', #24, .T. ) ;
#76 = PRODUCT_DEFINITION_FORMATION_WITH_SPECIFIED_SOURCE ( 'ANY', '', #147, .NOT_KNOWN. ) ;
#77 = CALENDAR_DATE ( 2021, 25, 11 ) ;
#78 = DIRECTION ( 'NONE',  ( 0.0000000000000000000, -1.000000000000000000, 0.0000000000000000000 ) ) ;
#79 = PERSON_AND_ORGANIZATION_ROLE ( 'design_supplier' ) ;
#80 = DIRECTION ( 'NONE',  ( 0.0000000000000000000, 1.000000000000000000, 0.0000000000000000000 ) ) ;
#81 = DATE_AND_TIME ( #8, #185 ) ;
#82 = CARTESIAN_POINT ( 'NONE',  ( 1.326762908760390423E-13, 1.199999999999995515, 38.00000000000000000 ) ) ;
#83 = CIRCLE ( 'NONE', #71, 1.499999999999996003 ) ;
#84 =( NAMED_UNIT ( * ) PLANE_ANGLE_UNIT ( ) SI_UNIT ( $, .RADIAN. ) );
#85 = DIRECTION ( 'NONE',  ( -3.491481338843133355E-15, 1.224646799147353207E-16, -1.000000000000000000 ) ) ;
#86 = AXIS2_PLACEMENT_3D ( 'NONE', #61, #33, #123 ) ;
#87 = ORIENTED_EDGE ( 'NONE', *, *, #31, .F. ) ;
#88 = ORIENTED_EDGE ( 'NONE', *, *, #20, .T. ) ;
#89 = EDGE_LOOP ( 'NONE', ( #152 ) ) ;
#90 = PRODUCT_DEFINITION ( 'UNKNOWN', '', #76, #168 ) ;
#91 = CARTESIAN_POINT ( 'NONE',  ( 1.326762908760390423E-13, 8.998558695971078593E-33, 38.00000000000000000 ) ) ;
#92 = PERSON_AND_ORGANIZATION ( #38, #149 ) ;
#93 = APPLICATION_PROTOCOL_DEFINITION ( 'international standard', 'config_control_design', 1994, #202 ) ;
#94 = DIRECTION ( 'NONE',  ( 4.275831445896959482E-31, 1.000000000000000000, 1.224646799147353207E-16 ) ) ;
#95 = CIRCLE ( 'NONE', #86, 1.499999999999996003 ) ;
#96 = MANIFOLD_SOLID_BREP ( 'Corps-Déplacer/Copier1[1]', #42 ) ;
#97 = DATE_AND_TIME ( #77, #151 ) ;
#98 = FACE_OUTER_BOUND ( 'NONE', #109, .T. ) ;
#99 = DIRECTION ( 'NONE',  ( 0.0000000000000000000, 1.000000000000000000, 0.0000000000000000000 ) ) ;
#100 = DIRECTION ( 'NONE',  ( 0.0000000000000000000, 0.0000000000000000000, 1.000000000000000000 ) ) ;
#101 = PLANE ( 'NONE',  #104 ) ;
#102 = APPROVAL_PERSON_ORGANIZATION ( #159, #111, #175 ) ;
#103 = DATE_AND_TIME ( #176, #5 ) ;
#104 = AXIS2_PLACEMENT_3D ( 'NONE', #162, #47, #157 ) ;
#105 = ORIENTED_EDGE ( 'NONE', *, *, #52, .T. ) ;
#106 = ORIENTED_EDGE ( 'NONE', *, *, #132, .F. ) ;
#107 = EDGE_LOOP ( 'NONE', ( #106 ) ) ;
#108 = APPROVAL_ROLE ( '' ) ;
#109 = EDGE_LOOP ( 'NONE', ( #150 ) ) ;
#110 = APPROVAL_ROLE ( '' ) ;
#111 = APPROVAL ( #116, 'UNSPECIFIED' ) ;
#112 = FACE_BOUND ( 'NONE', #59, .T. ) ;
#113 = DIRECTION ( 'NONE',  ( -4.275831445896958607E-31, -1.000000000000000000, -1.224646799147353207E-16 ) ) ;
#114 = SECURITY_CLASSIFICATION ( '', '', #196 ) ;
#115 = CARTESIAN_POINT ( 'NONE',  ( 1.093175860520960529E-14, -9.052307815213286851E-16, 3.130980103943998394 ) ) ;
#116 = APPROVAL_STATUS ( 'not_yet_approved' ) ;
#117 = DIRECTION ( 'NONE',  ( 3.491481338843133355E-15, -1.224646799147353207E-16, 1.000000000000000000 ) ) ;
#118 = APPROVAL_PERSON_ORGANIZATION ( #124, #48, #108 ) ;
#119 = CIRCLE ( 'NONE', #72, 0.04000000000000025757 ) ;
#120 = EDGE_LOOP ( 'NONE', ( #135 ) ) ;
#121 = AXIS2_PLACEMENT_3D ( 'NONE', #197, #67, #65 ) ;
#122 = CALENDAR_DATE ( 2021, 25, 11 ) ;
#123 = DIRECTION ( 'NONE',  ( 0.0000000000000000000, 1.000000000000000000, 0.0000000000000000000 ) ) ;
#124 = PERSON_AND_ORGANIZATION ( #38, #149 ) ;
#125 = DIRECTION ( 'NONE',  ( 4.275831445896959482E-31, 1.000000000000000000, 1.224646799147353207E-16 ) ) ;
#126 = CALENDAR_DATE ( 2021, 25, 11 ) ;
#127 = CARTESIAN_POINT ( 'NONE',  ( 1.316288464743861212E-13, -4.616918432785521081E-15, 37.69999999999999574 ) ) ;
#128 = CC_DESIGN_APPROVAL ( #111, ( #114 ) ) ;
#129 = PERSON_AND_ORGANIZATION_ROLE ( 'classification_officer' ) ;
#130 = VERTEX_POINT ( 'NONE', #82 ) ;
#131 = ADVANCED_FACE ( 'NONE', ( #75 ), #155, .F. ) ;
#132 = EDGE_CURVE ( 'NONE', #163, #163, #83, .T. ) ;
#133 = SHAPE_DEFINITION_REPRESENTATION ( #189, #7 ) ;
#134 = CARTESIAN_POINT ( 'NONE',  ( 1.093175860520960687E-14, 1.499999999999995559, 3.130980103943998838 ) ) ;
#135 = ORIENTED_EDGE ( 'NONE', *, *, #20, .F. ) ;
#136 = APPLICATION_CONTEXT ( 'configuration controlled 3d designs of mechanical parts and assemblies' ) ;
#137 = ADVANCED_FACE ( 'NONE', ( #30, #112 ), #180, .T. ) ;
#138 = PERSON_AND_ORGANIZATION_ROLE ( 'creator' ) ;
#139 = CARTESIAN_POINT ( 'NONE',  ( 1.093175860520960687E-14, -3.834344762489065729E-16, 3.130980103943998838 ) ) ;
#140 = DATE_AND_TIME ( #122, #18 ) ;
#141 = FACE_OUTER_BOUND ( 'NONE', #107, .T. ) ;
#142 = DIRECTION ( 'NONE',  ( 1.000000000000000000, 0.0000000000000000000, 0.0000000000000000000 ) ) ;
#143 = FACE_OUTER_BOUND ( 'NONE', #89, .T. ) ;
#144 = PERSON_AND_ORGANIZATION ( #38, #149 ) ;
#145 = VERTEX_POINT ( 'NONE', #200 ) ;
#146 =( NAMED_UNIT ( * ) SI_UNIT ( $, .STERADIAN. ) SOLID_ANGLE_UNIT ( ) );
#147 = PRODUCT ( '961333', '961333', '', ( #25 ) ) ;
#148 = FACE_OUTER_BOUND ( 'NONE', #3, .T. ) ;
#149 = ORGANIZATION ( 'UNSPECIFIED', 'UNSPECIFIED', '' ) ;
#150 = ORIENTED_EDGE ( 'NONE', *, *, #68, .T. ) ;
#151 = LOCAL_TIME ( 14, 47, 6.000000000000000000, #12 ) ;
#152 = ORIENTED_EDGE ( 'NONE', *, *, #31, .T. ) ;
#153 = DIRECTION ( 'NONE',  ( -3.491481338843133355E-15, 1.224646799147353207E-16, -1.000000000000000000 ) ) ;
#154 = CARTESIAN_POINT ( 'NONE',  ( 0.0000000000000000000, 0.0000000000000000000, 0.0000000000000000000 ) ) ;
#155 = PLANE ( 'NONE',  #201 ) ;
#156 = PERSON_AND_ORGANIZATION ( #38, #149 ) ;
#157 = DIRECTION ( 'NONE',  ( -4.275831445896958607E-31, -1.000000000000000000, -1.224646799147353207E-16 ) ) ;
#158 = CC_DESIGN_PERSON_AND_ORGANIZATION_ASSIGNMENT ( #64, #129, ( #114 ) ) ;
#159 = PERSON_AND_ORGANIZATION ( #38, #149 ) ;
#160 = CARTESIAN_POINT ( 'NONE',  ( 0.0000000000000000000, 0.0000000000000000000, 0.0000000000000000000 ) ) ;
#161 = AXIS2_PLACEMENT_3D ( 'NONE', #91, #153, #187 ) ;
#162 = CARTESIAN_POINT ( 'NONE',  ( 1.093175860520960529E-14, -9.052307815213286851E-16, 3.130980103943998394 ) ) ;
#163 = VERTEX_POINT ( 'NONE', #192 ) ;
#164 = MANIFOLD_SOLID_BREP ( 'Corps-Déplacer/Copier1[2]', #26 ) ;
#165 = AXIS2_PLACEMENT_3D ( 'NONE', #154, #100, #142 ) ;
#166 =( LENGTH_UNIT ( ) NAMED_UNIT ( * ) SI_UNIT ( .MILLI., .METRE. ) );
#167 = CC_DESIGN_APPROVAL ( #48, ( #90 ) ) ;
#168 = DESIGN_CONTEXT ( 'detailed design', #202, 'design' ) ;
#169 = EDGE_LOOP ( 'NONE', ( #105 ) ) ;
#170 = ORIENTED_EDGE ( 'NONE', *, *, #52, .F. ) ;
#171 = ADVANCED_FACE ( 'NONE', ( #141, #143 ), #195, .T. ) ;
#172 = DIRECTION ( 'NONE',  ( 3.491481338843133355E-15, -1.224646799147353207E-16, 1.000000000000000000 ) ) ;
#173 = APPROVAL_STATUS ( 'not_yet_approved' ) ;
#174 = DIRECTION ( 'NONE',  ( -3.491481338843133355E-15, 1.224646799147353207E-16, -1.000000000000000000 ) ) ;
#175 = APPROVAL_ROLE ( '' ) ;
#176 = CALENDAR_DATE ( 2021, 25, 11 ) ;
#177 = ADVANCED_FACE ( 'NONE', ( #98 ), #15, .F. ) ;
#178 = LOCAL_TIME ( 14, 47, 6.000000000000000000, #186 ) ;
#179 = CIRCLE ( 'NONE', #121, 1.200000000000000178 ) ;
#180 = CONICAL_SURFACE ( 'NONE', #21, 1.200000000000000178, 0.7853981633974457255 ) ;
#181 = DATE_TIME_ROLE ( 'creation_date' ) ;
#182 = DIRECTION ( 'NONE',  ( -3.491481338843133355E-15, 1.224646799147353207E-16, -1.000000000000000000 ) ) ;
#183 = CARTESIAN_POINT ( 'NONE',  ( -8.551662891793971897E-33, 2.999519565323734545E-34, -2.449293598294722176E-18 ) ) ;
#184 = DATE_AND_TIME ( #126, #178 ) ;
#185 = LOCAL_TIME ( 14, 47, 6.000000000000000000, #62 ) ;
#186 = COORDINATED_UNIVERSAL_TIME_OFFSET ( 1, 0, .AHEAD. ) ;
#187 = DIRECTION ( 'NONE',  ( 4.275831445896958607E-31, 1.000000000000000000, 1.224646799147353207E-16 ) ) ;
#188 = PERSON_AND_ORGANIZATION_ROLE ( 'design_owner' ) ;
#189 = PRODUCT_DEFINITION_SHAPE ( 'NONE', 'NONE',  #90 ) ;
#190 = VERTEX_POINT ( 'NONE', #53 ) ;
#191 = CC_DESIGN_PERSON_AND_ORGANIZATION_ASSIGNMENT ( #198, #79, ( #76 ) ) ;
#192 = CARTESIAN_POINT ( 'NONE',  ( 1.093175860520960687E-14, 1.499999999999995559, 3.130980103943998838 ) ) ;
#193 = CC_DESIGN_APPROVAL ( #6, ( #76 ) ) ;
#194 = FACE_OUTER_BOUND ( 'NONE', #169, .T. ) ;
#195 = CYLINDRICAL_SURFACE ( 'NONE', #1, 1.499999999999998002 ) ;
#196 = SECURITY_CLASSIFICATION_LEVEL ( 'unclassified' ) ;
#197 = CARTESIAN_POINT ( 'NONE',  ( 1.326762908760390423E-13, -4.653657836759941941E-15, 38.00000000000000000 ) ) ;
#198 = PERSON_AND_ORGANIZATION ( #38, #149 ) ;
#199 = AXIS2_PLACEMENT_3D ( 'NONE', #50, #172, #78 ) ;
#200 = CARTESIAN_POINT ( 'NONE',  ( 1.316288464743861212E-13, 1.499999999999995781, 37.69999999999999574 ) ) ;
#201 = AXIS2_PLACEMENT_3D ( 'NONE', #115, #117, #28 ) ;
#202 = APPLICATION_CONTEXT ( 'configuration controlled 3d designs of mechanical parts and assemblies' ) ;
#203 = CC_DESIGN_DATE_AND_TIME_ASSIGNMENT ( #184, #29, ( #114 ) ) ;
ENDSEC;
END-ISO-10303-21;
