ISO-10303-21;
HEADER;
FILE_DESCRIPTION (( 'STEP AP203' ),
    '1' );
FILE_NAME ('961332.step',
    '2021-11-25T13:47:06',
    ( '' ),
    ( '' ),
    'SwSTEP 2.0',
    'SolidWorks 2019',
    '' );
FILE_SCHEMA (( 'CONFIG_CONTROL_DESIGN' ));
ENDSEC;

DATA;
#1 = DIRECTION ( 'NONE',  ( 0.0000000000000000000, 1.000000000000000000, 0.0000000000000000000 ) ) ;
#2 = FACE_OUTER_BOUND ( 'NONE', #94, .T. ) ;
#3 = ORIENTED_EDGE ( 'NONE', *, *, #132, .F. ) ;
#4 = AXIS2_PLACEMENT_3D ( 'NONE', #104, #74, #170 ) ;
#5 = APPROVAL ( #35, 'UNSPECIFIED' ) ;
#6 = CARTESIAN_POINT ( 'NONE',  ( 0.0000000000000000000, 0.0000000000000000000, 0.0000000000000000000 ) ) ;
#7 = DIRECTION ( 'NONE',  ( -3.491481338843133355E-15, 1.224646799147353207E-16, -1.000000000000000000 ) ) ;
#8 = CALENDAR_DATE ( 2021, 25, 11 ) ;
#9 = LOCAL_TIME ( 14, 47, 6.000000000000000000, #23 ) ;
#10 = COORDINATED_UNIVERSAL_TIME_OFFSET ( 1, 0, .AHEAD. ) ;
#11 = APPROVAL ( #87, 'UNSPECIFIED' ) ;
#12 = PERSON ( 'UNSPECIFIED', 'UNSPECIFIED', 'UNSPECIFIED', ('UNSPECIFIED'), ('UNSPECIFIED'), ('UNSPECIFIED') ) ;
#13 = ORIENTED_EDGE ( 'NONE', *, *, #69, .T. ) ;
#14 = DIRECTION ( 'NONE',  ( -3.491481338843133355E-15, 1.224646799147353207E-16, -1.000000000000000000 ) ) ;
#15 = DIRECTION ( 'NONE',  ( -3.491481338843133355E-15, 1.224646799147353207E-16, -1.000000000000000000 ) ) ;
#16 = EDGE_LOOP ( 'NONE', ( #202 ) ) ;
#17 = ORIENTED_EDGE ( 'NONE', *, *, #69, .F. ) ;
#18 = PRODUCT ( '961332', '961332', '', ( #197 ) ) ;
#19 = CONICAL_SURFACE ( 'NONE', #131, 1.499999999999996003, 0.4363323129985759441 ) ;
#20 = CARTESIAN_POINT ( 'NONE',  ( 1.326762908760390423E-13, 1.199999999999995515, 38.00000000000000000 ) ) ;
#21 = PERSON_AND_ORGANIZATION ( #12, #185 ) ;
#22 =( GEOMETRIC_REPRESENTATION_CONTEXT ( 3 ) GLOBAL_UNCERTAINTY_ASSIGNED_CONTEXT ( ( #143 ) ) GLOBAL_UNIT_ASSIGNED_CONTEXT ( ( #127, #129, #63 ) ) REPRESENTATION_CONTEXT ( 'NONE', 'WORKASPACE' ) );
#23 = COORDINATED_UNIVERSAL_TIME_OFFSET ( 1, 0, .AHEAD. ) ;
#24 = APPLICATION_PROTOCOL_DEFINITION ( 'international standard', 'config_control_design', 1994, #75 ) ;
#25 = CLOSED_SHELL ( 'NONE', ( #110, #133, #169 ) ) ;
#26 = CALENDAR_DATE ( 2021, 25, 11 ) ;
#27 = COORDINATED_UNIVERSAL_TIME_OFFSET ( 1, 0, .AHEAD. ) ;
#28 = APPROVAL_DATE_TIME ( #86, #126 ) ;
#29 = CONICAL_SURFACE ( 'NONE', #46, 1.200000000000000178, 0.7853981633974457255 ) ;
#30 = EDGE_LOOP ( 'NONE', ( #138 ) ) ;
#31 = DIRECTION ( 'NONE',  ( 3.491481338843133355E-15, -1.224646799147353207E-16, 1.000000000000000000 ) ) ;
#32 = FACE_OUTER_BOUND ( 'NONE', #79, .T. ) ;
#33 = ADVANCED_FACE ( 'NONE', ( #121, #47 ), #29, .T. ) ;
#34 = EDGE_LOOP ( 'NONE', ( #3 ) ) ;
#35 = APPROVAL_STATUS ( 'not_yet_approved' ) ;
#36 = AXIS2_PLACEMENT_3D ( 'NONE', #6, #53, #141 ) ;
#37 = DIRECTION ( 'NONE',  ( 4.275831445896959482E-31, 1.000000000000000000, 1.224646799147353207E-16 ) ) ;
#38 = CALENDAR_DATE ( 2021, 25, 11 ) ;
#39 = CARTESIAN_POINT ( 'NONE',  ( 1.085688354626981754E-14, 1.499999999999995559, 3.109535034738903914 ) ) ;
#40 = ADVANCED_FACE ( 'NONE', ( #191 ), #59, .F. ) ;
#41 = EDGE_CURVE ( 'NONE', #140, #140, #139, .T. ) ;
#42 = DATE_AND_TIME ( #8, #193 ) ;
#43 = DATE_TIME_ROLE ( 'classification_date' ) ;
#44 = FACE_OUTER_BOUND ( 'NONE', #125, .T. ) ;
#45 = DIRECTION ( 'NONE',  ( 0.0000000000000000000, 1.000000000000000000, 0.0000000000000000000 ) ) ;
#46 = AXIS2_PLACEMENT_3D ( 'NONE', #62, #156, #1 ) ;
#47 = FACE_BOUND ( 'NONE', #30, .T. ) ;
#48 = ADVANCED_FACE ( 'NONE', ( #93 ), #136, .F. ) ;
#49 = CARTESIAN_POINT ( 'NONE',  ( 1.326762908760390423E-13, -4.653657836759941941E-15, 38.00000000000000000 ) ) ;
#50 = PERSON_AND_ORGANIZATION ( #12, #185 ) ;
#51 = CARTESIAN_POINT ( 'NONE',  ( 1.085688354626981754E-14, 1.124819836996389648E-32, 3.109535034738903914 ) ) ;
#52 = CC_DESIGN_APPROVAL ( #5, ( #103 ) ) ;
#53 = DIRECTION ( 'NONE',  ( 0.0000000000000000000, 0.0000000000000000000, 1.000000000000000000 ) ) ;
#54 = PERSON_AND_ORGANIZATION ( #12, #185 ) ;
#55 = PERSON_AND_ORGANIZATION_ROLE ( 'creator' ) ;
#56 = APPLICATION_CONTEXT ( 'configuration controlled 3d designs of mechanical parts and assemblies' ) ;
#57 = EDGE_LOOP ( 'NONE', ( #17 ) ) ;
#58 = PRODUCT_DEFINITION_FORMATION_WITH_SPECIFIED_SOURCE ( 'ANY', '', #18, .NOT_KNOWN. ) ;
#59 = PLANE ( 'NONE',  #142 ) ;
#60 = DIRECTION ( 'NONE',  ( 0.0000000000000000000, 1.000000000000000000, 0.0000000000000000000 ) ) ;
#61 = CYLINDRICAL_SURFACE ( 'NONE', #66, 1.499999999999998002 ) ;
#62 = CARTESIAN_POINT ( 'NONE',  ( 1.326762908760390423E-13, -4.653657836759941941E-15, 38.00000000000000000 ) ) ;
#63 =( NAMED_UNIT ( * ) SI_UNIT ( $, .STERADIAN. ) SOLID_ANGLE_UNIT ( ) );
#64 = PERSON_AND_ORGANIZATION_ROLE ( 'creator' ) ;
#65 = VERTEX_POINT ( 'NONE', #180 ) ;
#66 = AXIS2_PLACEMENT_3D ( 'NONE', #130, #165, #37 ) ;
#67 = VERTEX_POINT ( 'NONE', #159 ) ;
#68 = PLANE ( 'NONE',  #158 ) ;
#69 = EDGE_CURVE ( 'NONE', #67, #67, #101, .T. ) ;
#70 = DATE_AND_TIME ( #71, #78 ) ;
#71 = CALENDAR_DATE ( 2021, 25, 11 ) ;
#72 = EDGE_LOOP ( 'NONE', ( #187 ) ) ;
#73 = AXIS2_PLACEMENT_3D ( 'NONE', #154, #15, #76 ) ;
#74 = DIRECTION ( 'NONE',  ( 3.491481338843133355E-15, -1.224646799147353207E-16, 1.000000000000000000 ) ) ;
#75 = APPLICATION_CONTEXT ( 'configuration controlled 3d designs of mechanical parts and assemblies' ) ;
#76 = DIRECTION ( 'NONE',  ( 4.275831445896958607E-31, 1.000000000000000000, 1.224646799147353207E-16 ) ) ;
#77 = ORIENTED_EDGE ( 'NONE', *, *, #196, .F. ) ;
#78 = LOCAL_TIME ( 14, 47, 6.000000000000000000, #199 ) ;
#79 = EDGE_LOOP ( 'NONE', ( #157 ) ) ;
#80 = DATE_AND_TIME ( #96, #9 ) ;
#81 = APPROVAL_PERSON_ORGANIZATION ( #117, #11, #134 ) ;
#82 = CARTESIAN_POINT ( 'NONE',  ( 1.085688354626981754E-14, -3.808082127129552651E-16, 3.109535034738903914 ) ) ;
#83 = CC_DESIGN_PERSON_AND_ORGANIZATION_ASSIGNMENT ( #118, #55, ( #58 ) ) ;
#84 = PRODUCT_DEFINITION_SHAPE ( 'NONE', 'NONE',  #103 ) ;
#85 = PERSON_AND_ORGANIZATION_ROLE ( 'classification_officer' ) ;
#86 = DATE_AND_TIME ( #26, #177 ) ;
#87 = APPROVAL_STATUS ( 'not_yet_approved' ) ;
#88 = PRODUCT_RELATED_PRODUCT_CATEGORY ( 'detail', '', ( #18 ) ) ;
#89 = CARTESIAN_POINT ( 'NONE',  ( 1.085688354626981754E-14, 1.124819836996389648E-32, 3.109535034738903914 ) ) ;
#90 = MANIFOLD_SOLID_BREP ( 'Corps-Déplacer/Copier1[1]', #168 ) ;
#91 = EDGE_LOOP ( 'NONE', ( #152 ) ) ;
#92 = DIRECTION ( 'NONE',  ( 0.0000000000000000000, -1.000000000000000000, 0.0000000000000000000 ) ) ;
#93 = FACE_OUTER_BOUND ( 'NONE', #91, .T. ) ;
#94 = EDGE_LOOP ( 'NONE', ( #77 ) ) ;
#95 = ADVANCED_BREP_SHAPE_REPRESENTATION ( '961332', ( #90, #160, #36 ), #22 ) ;
#96 = CALENDAR_DATE ( 2021, 25, 11 ) ;
#97 = CC_DESIGN_DATE_AND_TIME_ASSIGNMENT ( #42, #43, ( #194 ) ) ;
#98 = CC_DESIGN_PERSON_AND_ORGANIZATION_ASSIGNMENT ( #50, #111, ( #18 ) ) ;
#99 = DATE_AND_TIME ( #38, #147 ) ;
#100 = APPROVAL_ROLE ( '' ) ;
#101 = CIRCLE ( 'NONE', #181, 1.499999999999996003 ) ;
#102 = CC_DESIGN_SECURITY_CLASSIFICATION ( #194, ( #58 ) ) ;
#103 = PRODUCT_DEFINITION ( 'UNKNOWN', '', #58, #190 ) ;
#104 = CARTESIAN_POINT ( 'NONE',  ( -4.774779157294971708E-33, 1.674767081399972585E-34, -1.367551103359769398E-18 ) ) ;
#105 = CARTESIAN_POINT ( 'NONE',  ( 1.326762908760390423E-13, 8.998558695971078593E-33, 38.00000000000000000 ) ) ;
#106 = FACE_OUTER_BOUND ( 'NONE', #123, .T. ) ;
#107 = APPROVAL_PERSON_ORGANIZATION ( #54, #5, #163 ) ;
#108 = CARTESIAN_POINT ( 'NONE',  ( 1.316288464743861212E-13, -4.616918432785521081E-15, 37.69999999999999574 ) ) ;
#109 = DIRECTION ( 'NONE',  ( -3.491481338843133355E-15, 1.224646799147353207E-16, -1.000000000000000000 ) ) ;
#110 = ADVANCED_FACE ( 'NONE', ( #44 ), #124, .F. ) ;
#111 = PERSON_AND_ORGANIZATION_ROLE ( 'design_owner' ) ;
#112 = CIRCLE ( 'NONE', #73, 0.04999999999999978767 ) ;
#113 = DIRECTION ( 'NONE',  ( 0.0000000000000000000, 1.000000000000000000, 0.0000000000000000000 ) ) ;
#114 = FACE_OUTER_BOUND ( 'NONE', #57, .T. ) ;
#115 = PERSON_AND_ORGANIZATION ( #12, #185 ) ;
#116 = DIRECTION ( 'NONE',  ( -4.275831445896958607E-31, -1.000000000000000000, -1.224646799147353207E-16 ) ) ;
#117 = PERSON_AND_ORGANIZATION ( #12, #185 ) ;
#118 = PERSON_AND_ORGANIZATION ( #12, #185 ) ;
#119 = AXIS2_PLACEMENT_3D ( 'NONE', #82, #7, #113 ) ;
#120 = CC_DESIGN_DATE_AND_TIME_ASSIGNMENT ( #99, #161, ( #103 ) ) ;
#121 = FACE_OUTER_BOUND ( 'NONE', #34, .T. ) ;
#122 = DIRECTION ( 'NONE',  ( -3.491481338843133355E-15, 1.224646799147353207E-16, -1.000000000000000000 ) ) ;
#123 = EDGE_LOOP ( 'NONE', ( #13 ) ) ;
#124 = PLANE ( 'NONE',  #4 ) ;
#125 = EDGE_LOOP ( 'NONE', ( #200 ) ) ;
#126 = APPROVAL ( #144, 'UNSPECIFIED' ) ;
#127 =( LENGTH_UNIT ( ) NAMED_UNIT ( * ) SI_UNIT ( .MILLI., .METRE. ) );
#128 = VERTEX_POINT ( 'NONE', #192 ) ;
#129 =( NAMED_UNIT ( * ) PLANE_ANGLE_UNIT ( ) SI_UNIT ( $, .RADIAN. ) );
#130 = CARTESIAN_POINT ( 'NONE',  ( 0.0000000000000000000, 0.0000000000000000000, 0.0000000000000000000 ) ) ;
#131 = AXIS2_PLACEMENT_3D ( 'NONE', #173, #31, #92 ) ;
#132 = EDGE_CURVE ( 'NONE', #65, #65, #153, .T. ) ;
#133 = ADVANCED_FACE ( 'NONE', ( #174, #106 ), #19, .T. ) ;
#134 = APPROVAL_ROLE ( '' ) ;
#135 = APPROVAL_PERSON_ORGANIZATION ( #21, #126, #100 ) ;
#136 = PLANE ( 'NONE',  #189 ) ;
#137 = DIRECTION ( 'NONE',  ( -3.491481338843133355E-15, 1.224646799147353207E-16, -1.000000000000000000 ) ) ;
#138 = ORIENTED_EDGE ( 'NONE', *, *, #41, .T. ) ;
#139 = CIRCLE ( 'NONE', #162, 1.200000000000000178 ) ;
#140 = VERTEX_POINT ( 'NONE', #20 ) ;
#141 = DIRECTION ( 'NONE',  ( 1.000000000000000000, 0.0000000000000000000, 0.0000000000000000000 ) ) ;
#142 = AXIS2_PLACEMENT_3D ( 'NONE', #89, #188, #151 ) ;
#143 = UNCERTAINTY_MEASURE_WITH_UNIT (LENGTH_MEASURE( 1.000000000000000082E-05 ), #127, 'distance_accuracy_value', 'NONE');
#144 = APPROVAL_STATUS ( 'not_yet_approved' ) ;
#145 = APPROVAL_DATE_TIME ( #80, #5 ) ;
#146 = CC_DESIGN_PERSON_AND_ORGANIZATION_ASSIGNMENT ( #167, #85, ( #194 ) ) ;
#147 = LOCAL_TIME ( 14, 47, 6.000000000000000000, #179 ) ;
#148 = SHAPE_DEFINITION_REPRESENTATION ( #84, #95 ) ;
#149 = APPROVAL_DATE_TIME ( #70, #11 ) ;
#150 = SECURITY_CLASSIFICATION_LEVEL ( 'unclassified' ) ;
#151 = DIRECTION ( 'NONE',  ( -4.275831445896958607E-31, -1.000000000000000000, -1.224646799147353207E-16 ) ) ;
#152 = ORIENTED_EDGE ( 'NONE', *, *, #41, .F. ) ;
#153 = CIRCLE ( 'NONE', #198, 1.500000000000000222 ) ;
#154 = CARTESIAN_POINT ( 'NONE',  ( -9.549558314589943416E-33, 3.349534162799945171E-34, -2.735102206719538795E-18 ) ) ;
#155 = EDGE_CURVE ( 'NONE', #128, #128, #112, .T. ) ;
#156 = DIRECTION ( 'NONE',  ( -3.491481338843133355E-15, 1.224646799147353207E-16, -1.000000000000000000 ) ) ;
#157 = ORIENTED_EDGE ( 'NONE', *, *, #132, .T. ) ;
#158 = AXIS2_PLACEMENT_3D ( 'NONE', #51, #178, #116 ) ;
#159 = CARTESIAN_POINT ( 'NONE',  ( 1.085688354626981754E-14, 1.499999999999995559, 3.109535034738903914 ) ) ;
#160 = MANIFOLD_SOLID_BREP ( 'Corps-Déplacer/Copier1[2]', #25 ) ;
#161 = DATE_TIME_ROLE ( 'creation_date' ) ;
#162 = AXIS2_PLACEMENT_3D ( 'NONE', #49, #109, #60 ) ;
#163 = APPROVAL_ROLE ( '' ) ;
#164 = ADVANCED_FACE ( 'NONE', ( #2, #32 ), #61, .T. ) ;
#165 = DIRECTION ( 'NONE',  ( -3.491481338843133355E-15, 1.224646799147353207E-16, -1.000000000000000000 ) ) ;
#166 = CC_DESIGN_PERSON_AND_ORGANIZATION_ASSIGNMENT ( #115, #64, ( #103 ) ) ;
#167 = PERSON_AND_ORGANIZATION ( #12, #185 ) ;
#168 = CLOSED_SHELL ( 'NONE', ( #40, #164, #33, #48 ) ) ;
#169 = ADVANCED_FACE ( 'NONE', ( #114 ), #68, .T. ) ;
#170 = DIRECTION ( 'NONE',  ( -4.275831445896958607E-31, -1.000000000000000000, -1.224646799147353207E-16 ) ) ;
#171 = CC_DESIGN_PERSON_AND_ORGANIZATION_ASSIGNMENT ( #184, #182, ( #58 ) ) ;
#172 = DIRECTION ( 'NONE',  ( 4.275831445896958607E-31, 1.000000000000000000, 1.224646799147353207E-16 ) ) ;
#173 = CARTESIAN_POINT ( 'NONE',  ( 1.085688354626981754E-14, -3.808082127129552651E-16, 3.109535034738903914 ) ) ;
#174 = FACE_BOUND ( 'NONE', #72, .T. ) ;
#175 = DIRECTION ( 'NONE',  ( 0.0000000000000000000, 1.000000000000000000, 0.0000000000000000000 ) ) ;
#176 = APPLICATION_PROTOCOL_DEFINITION ( 'international standard', 'config_control_design', 1994, #56 ) ;
#177 = LOCAL_TIME ( 14, 47, 6.000000000000000000, #10 ) ;
#178 = DIRECTION ( 'NONE',  ( 3.491481338843133355E-15, -1.224646799147353207E-16, 1.000000000000000000 ) ) ;
#179 = COORDINATED_UNIVERSAL_TIME_OFFSET ( 1, 0, .AHEAD. ) ;
#180 = CARTESIAN_POINT ( 'NONE',  ( 1.316288464743861212E-13, 1.499999999999995781, 37.69999999999999574 ) ) ;
#181 = AXIS2_PLACEMENT_3D ( 'NONE', #186, #14, #175 ) ;
#182 = PERSON_AND_ORGANIZATION_ROLE ( 'design_supplier' ) ;
#183 = CIRCLE ( 'NONE', #119, 1.499999999999996003 ) ;
#184 = PERSON_AND_ORGANIZATION ( #12, #185 ) ;
#185 = ORGANIZATION ( 'UNSPECIFIED', 'UNSPECIFIED', '' ) ;
#186 = CARTESIAN_POINT ( 'NONE',  ( 1.085688354626981754E-14, -3.808082127129552651E-16, 3.109535034738903914 ) ) ;
#187 = ORIENTED_EDGE ( 'NONE', *, *, #155, .F. ) ;
#188 = DIRECTION ( 'NONE',  ( 3.491481338843133355E-15, -1.224646799147353207E-16, 1.000000000000000000 ) ) ;
#189 = AXIS2_PLACEMENT_3D ( 'NONE', #105, #122, #172 ) ;
#190 = DESIGN_CONTEXT ( 'detailed design', #56, 'design' ) ;
#191 = FACE_OUTER_BOUND ( 'NONE', #16, .T. ) ;
#192 = CARTESIAN_POINT ( 'NONE',  ( 1.182959891489475848E-32, 0.04999999999999978767, 3.388131789017201356E-18 ) ) ;
#193 = LOCAL_TIME ( 14, 47, 6.000000000000000000, #27 ) ;
#194 = SECURITY_CLASSIFICATION ( '', '', #150 ) ;
#195 = VERTEX_POINT ( 'NONE', #39 ) ;
#196 = EDGE_CURVE ( 'NONE', #195, #195, #183, .T. ) ;
#197 = MECHANICAL_CONTEXT ( 'NONE', #75, 'mechanical' ) ;
#198 = AXIS2_PLACEMENT_3D ( 'NONE', #108, #137, #45 ) ;
#199 = COORDINATED_UNIVERSAL_TIME_OFFSET ( 1, 0, .AHEAD. ) ;
#200 = ORIENTED_EDGE ( 'NONE', *, *, #155, .T. ) ;
#201 = CC_DESIGN_APPROVAL ( #126, ( #58 ) ) ;
#202 = ORIENTED_EDGE ( 'NONE', *, *, #196, .T. ) ;
#203 = CC_DESIGN_APPROVAL ( #11, ( #194 ) ) ;
ENDSEC;
END-ISO-10303-21;
