ISO-10303-21;
HEADER;
FILE_DESCRIPTION (( 'STEP AP203' ),
    '1' );
FILE_NAME ('961331.step',
    '2021-11-25T13:42:39',
    ( '' ),
    ( '' ),
    'SwSTEP 2.0',
    'SolidWorks 2019',
    '' );
FILE_SCHEMA (( 'CONFIG_CONTROL_DESIGN' ));
ENDSEC;

DATA;
#1 = PERSON_AND_ORGANIZATION_ROLE ( 'design_owner' ) ;
#2 = FACE_OUTER_BOUND ( 'NONE', #180, .T. ) ;
#3 = APPROVAL_PERSON_ORGANIZATION ( #122, #164, #97 ) ;
#4 = DATE_AND_TIME ( #141, #78 ) ;
#5 = EDGE_LOOP ( 'NONE', ( #89 ) ) ;
#6 = ADVANCED_FACE ( 'NONE', ( #128, #50 ), #104, .T. ) ;
#7 = DATE_AND_TIME ( #143, #102 ) ;
#8 = ORIENTED_EDGE ( 'NONE', *, *, #195, .F. ) ;
#9 = CARTESIAN_POINT ( 'NONE',  ( 1.048250825157085510E-14, 1.499999999999995559, 3.002309688713423519 ) ) ;
#10 = CARTESIAN_POINT ( 'NONE',  ( -4.275831445896960358E-32, 1.499759782661858292E-33, -1.224646799147353731E-17 ) ) ;
#11 =( NAMED_UNIT ( * ) PLANE_ANGLE_UNIT ( ) SI_UNIT ( $, .RADIAN. ) );
#12 = DIRECTION ( 'NONE',  ( 0.0000000000000000000, 1.000000000000000000, 0.0000000000000000000 ) ) ;
#13 = EDGE_CURVE ( 'NONE', #171, #171, #139, .T. ) ;
#14 = EDGE_LOOP ( 'NONE', ( #66 ) ) ;
#15 = EDGE_LOOP ( 'NONE', ( #40 ) ) ;
#16 = CARTESIAN_POINT ( 'NONE',  ( 0.0000000000000000000, 0.0000000000000000000, 0.0000000000000000000 ) ) ;
#17 = PLANE ( 'NONE',  #123 ) ;
#18 = APPLICATION_CONTEXT ( 'configuration controlled 3d designs of mechanical parts and assemblies' ) ;
#19 = CIRCLE ( 'NONE', #137, 1.499999999999996003 ) ;
#20 = CARTESIAN_POINT ( 'NONE',  ( 1.048250825157085510E-14, -3.676768950331980356E-16, 3.002309688713423519 ) ) ;
#21 = MECHANICAL_CONTEXT ( 'NONE', #203, 'mechanical' ) ;
#22 = COORDINATED_UNIVERSAL_TIME_OFFSET ( 1, 0, .AHEAD. ) ;
#23 = CARTESIAN_POINT ( 'NONE',  ( 1.048250825157085510E-14, -3.676768950331980356E-16, 3.002309688713423519 ) ) ;
#24 = ORGANIZATION ( 'UNSPECIFIED', 'UNSPECIFIED', '' ) ;
#25 = COORDINATED_UNIVERSAL_TIME_OFFSET ( 1, 0, .AHEAD. ) ;
#26 = CARTESIAN_POINT ( 'NONE',  ( 1.326762908760390423E-13, -4.653657836759941941E-15, 38.00000000000000000 ) ) ;
#27 = CARTESIAN_POINT ( 'NONE',  ( 1.048250825157085510E-14, 1.124819836996389648E-32, 3.002309688713423519 ) ) ;
#28 = ORIENTED_EDGE ( 'NONE', *, *, #13, .T. ) ;
#29 = ADVANCED_FACE ( 'NONE', ( #182 ), #145, .F. ) ;
#30 = APPROVAL_DATE_TIME ( #194, #60 ) ;
#31 = AXIS2_PLACEMENT_3D ( 'NONE', #147, #107, #113 ) ;
#32 = VERTEX_POINT ( 'NONE', #88 ) ;
#33 = LOCAL_TIME ( 14, 42, 39.00000000000000000, #162 ) ;
#34 = ADVANCED_FACE ( 'NONE', ( #100, #163 ), #184, .T. ) ;
#35 = DIRECTION ( 'NONE',  ( -3.491481338843133355E-15, 1.224646799147353207E-16, -1.000000000000000000 ) ) ;
#36 = PERSON_AND_ORGANIZATION ( #47, #24 ) ;
#37 = DIRECTION ( 'NONE',  ( 4.275831445896958607E-31, 1.000000000000000000, 1.224646799147353207E-16 ) ) ;
#38 = AXIS2_PLACEMENT_3D ( 'NONE', #16, #56, #191 ) ;
#39 = DIRECTION ( 'NONE',  ( 3.491481338843133355E-15, -1.224646799147353207E-16, 1.000000000000000000 ) ) ;
#40 = ORIENTED_EDGE ( 'NONE', *, *, #58, .F. ) ;
#41 = FACE_OUTER_BOUND ( 'NONE', #199, .T. ) ;
#42 = CALENDAR_DATE ( 2021, 25, 11 ) ;
#43 = EDGE_LOOP ( 'NONE', ( #28 ) ) ;
#44 = CC_DESIGN_SECURITY_CLASSIFICATION ( #84, ( #187 ) ) ;
#45 = PRODUCT_RELATED_PRODUCT_CATEGORY ( 'detail', '', ( #114 ) ) ;
#46 = AXIS2_PLACEMENT_3D ( 'NONE', #93, #124, #37 ) ;
#47 = PERSON ( 'UNSPECIFIED', 'UNSPECIFIED', 'UNSPECIFIED', ('UNSPECIFIED'), ('UNSPECIFIED'), ('UNSPECIFIED') ) ;
#48 = UNCERTAINTY_MEASURE_WITH_UNIT (LENGTH_MEASURE( 1.000000000000000082E-05 ), #63, 'distance_accuracy_value', 'NONE');
#49 = CC_DESIGN_PERSON_AND_ORGANIZATION_ASSIGNMENT ( #197, #87, ( #187 ) ) ;
#50 = FACE_OUTER_BOUND ( 'NONE', #43, .T. ) ;
#51 = PERSON_AND_ORGANIZATION_ROLE ( 'creator' ) ;
#52 = PERSON_AND_ORGANIZATION ( #47, #24 ) ;
#53 = CARTESIAN_POINT ( 'NONE',  ( 1.048250825157085510E-14, 1.499999999999995559, 3.002309688713423519 ) ) ;
#54 = ORIENTED_EDGE ( 'NONE', *, *, #112, .T. ) ;
#55 = ORIENTED_EDGE ( 'NONE', *, *, #58, .T. ) ;
#56 = DIRECTION ( 'NONE',  ( 0.0000000000000000000, 0.0000000000000000000, 1.000000000000000000 ) ) ;
#57 = DIRECTION ( 'NONE',  ( -4.275831445896958607E-31, -1.000000000000000000, -1.224646799147353207E-16 ) ) ;
#58 = EDGE_CURVE ( 'NONE', #186, #186, #76, .T. ) ;
#59 = CIRCLE ( 'NONE', #173, 1.500000000000000222 ) ;
#60 = APPROVAL ( #92, 'UNSPECIFIED' ) ;
#61 = DATE_TIME_ROLE ( 'classification_date' ) ;
#62 = CC_DESIGN_APPROVAL ( #138, ( #201 ) ) ;
#63 =( LENGTH_UNIT ( ) NAMED_UNIT ( * ) SI_UNIT ( .MILLI., .METRE. ) );
#64 = ADVANCED_FACE ( 'NONE', ( #168, #71 ), #86, .T. ) ;
#65 = APPROVAL_DATE_TIME ( #4, #138 ) ;
#66 = ORIENTED_EDGE ( 'NONE', *, *, #99, .F. ) ;
#67 = APPROVAL_ROLE ( '' ) ;
#68 = PLANE ( 'NONE',  #161 ) ;
#69 = VERTEX_POINT ( 'NONE', #53 ) ;
#70 = ADVANCED_FACE ( 'NONE', ( #41 ), #68, .F. ) ;
#71 = FACE_BOUND ( 'NONE', #149, .T. ) ;
#72 = PERSON_AND_ORGANIZATION ( #47, #24 ) ;
#73 =( NAMED_UNIT ( * ) SI_UNIT ( $, .STERADIAN. ) SOLID_ANGLE_UNIT ( ) );
#74 = DIRECTION ( 'NONE',  ( -4.275831445896958607E-31, -1.000000000000000000, -1.224646799147353207E-16 ) ) ;
#75 = AXIS2_PLACEMENT_3D ( 'NONE', #26, #146, #148 ) ;
#76 = CIRCLE ( 'NONE', #153, 0.1000000000000000472 ) ;
#77 = LOCAL_TIME ( 14, 42, 39.00000000000000000, #117 ) ;
#78 = LOCAL_TIME ( 14, 42, 39.00000000000000000, #22 ) ;
#79 = CC_DESIGN_PERSON_AND_ORGANIZATION_ASSIGNMENT ( #72, #188, ( #84 ) ) ;
#80 = DIRECTION ( 'NONE',  ( -3.491481338843133355E-15, 1.224646799147353207E-16, -1.000000000000000000 ) ) ;
#81 = CARTESIAN_POINT ( 'NONE',  ( 1.326762908760390423E-13, -4.653657836759941941E-15, 38.00000000000000000 ) ) ;
#82 = CARTESIAN_POINT ( 'NONE',  ( 0.0000000000000000000, 0.1000000000000000472, 0.0000000000000000000 ) ) ;
#83 = DIRECTION ( 'NONE',  ( 4.275831445896958607E-31, 1.000000000000000000, 1.224646799147353207E-16 ) ) ;
#84 = SECURITY_CLASSIFICATION ( '', '', #85 ) ;
#85 = SECURITY_CLASSIFICATION_LEVEL ( 'unclassified' ) ;
#86 = CONICAL_SURFACE ( 'NONE', #120, 1.200000000000000178, 0.7853981633974457255 ) ;
#87 = PERSON_AND_ORGANIZATION_ROLE ( 'creator' ) ;
#88 = CARTESIAN_POINT ( 'NONE',  ( 1.316288464743861212E-13, 1.499999999999995781, 37.69999999999999574 ) ) ;
#89 = ORIENTED_EDGE ( 'NONE', *, *, #99, .T. ) ;
#90 = SHAPE_DEFINITION_REPRESENTATION ( #156, #135 ) ;
#91 = DIRECTION ( 'NONE',  ( -3.491481338843133355E-15, 1.224646799147353207E-16, -1.000000000000000000 ) ) ;
#92 = APPROVAL_STATUS ( 'not_yet_approved' ) ;
#93 = CARTESIAN_POINT ( 'NONE',  ( 1.326762908760390423E-13, 8.998558695971078593E-33, 38.00000000000000000 ) ) ;
#94 = CIRCLE ( 'NONE', #75, 1.200000000000000178 ) ;
#95 = DESIGN_CONTEXT ( 'detailed design', #18, 'design' ) ;
#96 = PLANE ( 'NONE',  #190 ) ;
#97 = APPROVAL_ROLE ( '' ) ;
#98 = DIRECTION ( 'NONE',  ( 3.491481338843133355E-15, -1.224646799147353207E-16, 1.000000000000000000 ) ) ;
#99 = EDGE_CURVE ( 'NONE', #32, #32, #59, .T. ) ;
#100 = FACE_OUTER_BOUND ( 'NONE', #131, .T. ) ;
#101 = CC_DESIGN_APPROVAL ( #164, ( #84 ) ) ;
#102 = LOCAL_TIME ( 14, 42, 39.00000000000000000, #25 ) ;
#103 = AXIS2_PLACEMENT_3D ( 'NONE', #23, #192, #178 ) ;
#104 = CONICAL_SURFACE ( 'NONE', #103, 1.499999999999996003, 0.4363323129985759996 ) ;
#105 = APPLICATION_PROTOCOL_DEFINITION ( 'international standard', 'config_control_design', 1994, #18 ) ;
#106 =( GEOMETRIC_REPRESENTATION_CONTEXT ( 3 ) GLOBAL_UNCERTAINTY_ASSIGNED_CONTEXT ( ( #48 ) ) GLOBAL_UNIT_ASSIGNED_CONTEXT ( ( #63, #11, #73 ) ) REPRESENTATION_CONTEXT ( 'NONE', 'WORKASPACE' ) );
#107 = DIRECTION ( 'NONE',  ( -3.491481338843133355E-15, 1.224646799147353207E-16, -1.000000000000000000 ) ) ;
#108 = DATE_TIME_ROLE ( 'creation_date' ) ;
#109 = APPROVAL_DATE_TIME ( #193, #164 ) ;
#110 = ORIENTED_EDGE ( 'NONE', *, *, #195, .T. ) ;
#111 = ORIENTED_EDGE ( 'NONE', *, *, #112, .F. ) ;
#112 = EDGE_CURVE ( 'NONE', #69, #69, #19, .T. ) ;
#113 = DIRECTION ( 'NONE',  ( 4.275831445896959482E-31, 1.000000000000000000, 1.224646799147353207E-16 ) ) ;
#114 = PRODUCT ( '961331', '961331', '', ( #21 ) ) ;
#115 = DIRECTION ( 'NONE',  ( -4.275831445896958607E-31, -1.000000000000000000, -1.224646799147353207E-16 ) ) ;
#116 = DATE_AND_TIME ( #42, #167 ) ;
#117 = COORDINATED_UNIVERSAL_TIME_OFFSET ( 1, 0, .AHEAD. ) ;
#118 = PERSON_AND_ORGANIZATION ( #47, #24 ) ;
#119 = APPROVAL_PERSON_ORGANIZATION ( #52, #60, #67 ) ;
#120 = AXIS2_PLACEMENT_3D ( 'NONE', #81, #35, #160 ) ;
#121 = CC_DESIGN_DATE_AND_TIME_ASSIGNMENT ( #7, #108, ( #201 ) ) ;
#122 = PERSON_AND_ORGANIZATION ( #47, #24 ) ;
#123 = AXIS2_PLACEMENT_3D ( 'NONE', #133, #200, #57 ) ;
#124 = DIRECTION ( 'NONE',  ( -3.491481338843133355E-15, 1.224646799147353207E-16, -1.000000000000000000 ) ) ;
#125 = PERSON_AND_ORGANIZATION ( #47, #24 ) ;
#126 = CC_DESIGN_PERSON_AND_ORGANIZATION_ASSIGNMENT ( #118, #151, ( #187 ) ) ;
#127 = AXIS2_PLACEMENT_3D ( 'NONE', #176, #80, #12 ) ;
#128 = FACE_BOUND ( 'NONE', #15, .T. ) ;
#129 = CALENDAR_DATE ( 2021, 25, 11 ) ;
#130 = DIRECTION ( 'NONE',  ( 0.0000000000000000000, 1.000000000000000000, 0.0000000000000000000 ) ) ;
#131 = EDGE_LOOP ( 'NONE', ( #111 ) ) ;
#132 = DIRECTION ( 'NONE',  ( -3.491481338843133355E-15, 1.224646799147353207E-16, -1.000000000000000000 ) ) ;
#133 = CARTESIAN_POINT ( 'NONE',  ( 1.048250825157085510E-14, 1.124819836996389648E-32, 3.002309688713423519 ) ) ;
#134 = FACE_OUTER_BOUND ( 'NONE', #159, .T. ) ;
#135 = ADVANCED_BREP_SHAPE_REPRESENTATION ( '961331', ( #169, #172, #38 ), #106 ) ;
#136 = ADVANCED_FACE ( 'NONE', ( #2 ), #96, .F. ) ;
#137 = AXIS2_PLACEMENT_3D ( 'NONE', #20, #152, #157 ) ;
#138 = APPROVAL ( #175, 'UNSPECIFIED' ) ;
#139 = CIRCLE ( 'NONE', #127, 1.499999999999996003 ) ;
#140 = PERSON_AND_ORGANIZATION ( #47, #24 ) ;
#141 = CALENDAR_DATE ( 2021, 25, 11 ) ;
#142 = ORIENTED_EDGE ( 'NONE', *, *, #13, .F. ) ;
#143 = CALENDAR_DATE ( 2021, 25, 11 ) ;
#144 = CARTESIAN_POINT ( 'NONE',  ( -2.137915722948480179E-32, 7.498798913309291460E-34, -6.123233995736768655E-18 ) ) ;
#145 = PLANE ( 'NONE',  #46 ) ;
#146 = DIRECTION ( 'NONE',  ( -3.491481338843133355E-15, 1.224646799147353207E-16, -1.000000000000000000 ) ) ;
#147 = CARTESIAN_POINT ( 'NONE',  ( 0.0000000000000000000, 0.0000000000000000000, 0.0000000000000000000 ) ) ;
#148 = DIRECTION ( 'NONE',  ( 0.0000000000000000000, 1.000000000000000000, 0.0000000000000000000 ) ) ;
#149 = EDGE_LOOP ( 'NONE', ( #110 ) ) ;
#150 = CC_DESIGN_PERSON_AND_ORGANIZATION_ASSIGNMENT ( #125, #51, ( #201 ) ) ;
#151 = PERSON_AND_ORGANIZATION_ROLE ( 'design_supplier' ) ;
#152 = DIRECTION ( 'NONE',  ( -3.491481338843133355E-15, 1.224646799147353207E-16, -1.000000000000000000 ) ) ;
#153 = AXIS2_PLACEMENT_3D ( 'NONE', #10, #91, #83 ) ;
#154 = CC_DESIGN_DATE_AND_TIME_ASSIGNMENT ( #116, #61, ( #84 ) ) ;
#155 = APPROVAL_STATUS ( 'not_yet_approved' ) ;
#156 = PRODUCT_DEFINITION_SHAPE ( 'NONE', 'NONE',  #201 ) ;
#157 = DIRECTION ( 'NONE',  ( 0.0000000000000000000, 1.000000000000000000, 0.0000000000000000000 ) ) ;
#158 = APPROVAL_ROLE ( '' ) ;
#159 = EDGE_LOOP ( 'NONE', ( #142 ) ) ;
#160 = DIRECTION ( 'NONE',  ( 0.0000000000000000000, 1.000000000000000000, 0.0000000000000000000 ) ) ;
#161 = AXIS2_PLACEMENT_3D ( 'NONE', #144, #98, #74 ) ;
#162 = COORDINATED_UNIVERSAL_TIME_OFFSET ( 1, 0, .AHEAD. ) ;
#163 = FACE_OUTER_BOUND ( 'NONE', #5, .T. ) ;
#164 = APPROVAL ( #155, 'UNSPECIFIED' ) ;
#165 = CARTESIAN_POINT ( 'NONE',  ( 1.326762908760390423E-13, 1.199999999999995515, 38.00000000000000000 ) ) ;
#166 = CARTESIAN_POINT ( 'NONE',  ( 1.316288464743861212E-13, -4.616918432785521081E-15, 37.69999999999999574 ) ) ;
#167 = LOCAL_TIME ( 14, 42, 39.00000000000000000, #183 ) ;
#168 = FACE_OUTER_BOUND ( 'NONE', #14, .T. ) ;
#169 = MANIFOLD_SOLID_BREP ( 'Corps-Déplacer/Copier1[1]', #189 ) ;
#170 = CC_DESIGN_PERSON_AND_ORGANIZATION_ASSIGNMENT ( #140, #1, ( #114 ) ) ;
#171 = VERTEX_POINT ( 'NONE', #9 ) ;
#172 = MANIFOLD_SOLID_BREP ( 'Corps-Déplacer/Copier1[2]', #198 ) ;
#173 = AXIS2_PLACEMENT_3D ( 'NONE', #166, #132, #130 ) ;
#174 = CC_DESIGN_APPROVAL ( #60, ( #187 ) ) ;
#175 = APPROVAL_STATUS ( 'not_yet_approved' ) ;
#176 = CARTESIAN_POINT ( 'NONE',  ( 1.048250825157085510E-14, -3.676768950331980356E-16, 3.002309688713423519 ) ) ;
#177 = APPLICATION_PROTOCOL_DEFINITION ( 'international standard', 'config_control_design', 1994, #203 ) ;
#178 = DIRECTION ( 'NONE',  ( 0.0000000000000000000, -1.000000000000000000, 0.0000000000000000000 ) ) ;
#179 = APPROVAL_PERSON_ORGANIZATION ( #36, #138, #158 ) ;
#180 = EDGE_LOOP ( 'NONE', ( #54 ) ) ;
#181 = VERTEX_POINT ( 'NONE', #165 ) ;
#182 = FACE_OUTER_BOUND ( 'NONE', #196, .T. ) ;
#183 = COORDINATED_UNIVERSAL_TIME_OFFSET ( 1, 0, .AHEAD. ) ;
#184 = CYLINDRICAL_SURFACE ( 'NONE', #31, 1.499999999999998002 ) ;
#185 = CALENDAR_DATE ( 2021, 25, 11 ) ;
#186 = VERTEX_POINT ( 'NONE', #82 ) ;
#187 = PRODUCT_DEFINITION_FORMATION_WITH_SPECIFIED_SOURCE ( 'ANY', '', #114, .NOT_KNOWN. ) ;
#188 = PERSON_AND_ORGANIZATION_ROLE ( 'classification_officer' ) ;
#189 = CLOSED_SHELL ( 'NONE', ( #136, #34, #64, #29 ) ) ;
#190 = AXIS2_PLACEMENT_3D ( 'NONE', #27, #39, #115 ) ;
#191 = DIRECTION ( 'NONE',  ( 1.000000000000000000, 0.0000000000000000000, 0.0000000000000000000 ) ) ;
#192 = DIRECTION ( 'NONE',  ( 3.491481338843133355E-15, -1.224646799147353207E-16, 1.000000000000000000 ) ) ;
#193 = DATE_AND_TIME ( #185, #77 ) ;
#194 = DATE_AND_TIME ( #129, #33 ) ;
#195 = EDGE_CURVE ( 'NONE', #181, #181, #94, .T. ) ;
#196 = EDGE_LOOP ( 'NONE', ( #8 ) ) ;
#197 = PERSON_AND_ORGANIZATION ( #47, #24 ) ;
#198 = CLOSED_SHELL ( 'NONE', ( #70, #6, #202 ) ) ;
#199 = EDGE_LOOP ( 'NONE', ( #55 ) ) ;
#200 = DIRECTION ( 'NONE',  ( 3.491481338843133355E-15, -1.224646799147353207E-16, 1.000000000000000000 ) ) ;
#201 = PRODUCT_DEFINITION ( 'UNKNOWN', '', #187, #95 ) ;
#202 = ADVANCED_FACE ( 'NONE', ( #134 ), #17, .T. ) ;
#203 = APPLICATION_CONTEXT ( 'configuration controlled 3d designs of mechanical parts and assemblies' ) ;
ENDSEC;
END-ISO-10303-21;
