ISO-10303-21;
HEADER;
FILE_DESCRIPTION (( 'STEP AP203' ),
    '1' );
FILE_NAME ('961330.step',
    '2021-11-25T13:42:39',
    ( '' ),
    ( '' ),
    'SwSTEP 2.0',
    'SolidWorks 2019',
    '' );
FILE_SCHEMA (( 'CONFIG_CONTROL_DESIGN' ));
ENDSEC;

DATA;
#1 = AXIS2_PLACEMENT_3D ( 'NONE', #66, #109, #128 ) ;
#2 = FACE_BOUND ( 'NONE', #137, .T. ) ;
#3 = CALENDAR_DATE ( 2021, 25, 11 ) ;
#4 =( LENGTH_UNIT ( ) NAMED_UNIT ( * ) SI_UNIT ( .MILLI., .METRE. ) );
#5 = AXIS2_PLACEMENT_3D ( 'NONE', #69, #132, #192 ) ;
#6 = ADVANCED_FACE ( 'NONE', ( #25 ), #163, .F. ) ;
#7 = CARTESIAN_POINT ( 'NONE',  ( 1.316288464743861212E-13, -4.616918432785521081E-15, 37.69999999999999574 ) ) ;
#8 = DATE_AND_TIME ( #148, #179 ) ;
#9 = CIRCLE ( 'NONE', #15, 1.500000000000000222 ) ;
#10 = DIRECTION ( 'NONE',  ( 0.0000000000000000000, 1.000000000000000000, 0.0000000000000000000 ) ) ;
#11 = ORIENTED_EDGE ( 'NONE', *, *, #185, .F. ) ;
#12 = PLANE ( 'NONE',  #114 ) ;
#13 = PRODUCT ( '961330', '961330', '', ( #195 ) ) ;
#14 = ORIENTED_EDGE ( 'NONE', *, *, #28, .F. ) ;
#15 = AXIS2_PLACEMENT_3D ( 'NONE', #7, #151, #10 ) ;
#16 = CARTESIAN_POINT ( 'NONE',  ( 1.066969589892033632E-14, -3.742425538730765764E-16, 3.055922361726163494 ) ) ;
#17 = DIRECTION ( 'NONE',  ( -3.491481338843133355E-15, 1.224646799147353207E-16, -1.000000000000000000 ) ) ;
#18 = DIRECTION ( 'NONE',  ( 3.491481338843133355E-15, -1.224646799147353207E-16, 1.000000000000000000 ) ) ;
#19 =( NAMED_UNIT ( * ) PLANE_ANGLE_UNIT ( ) SI_UNIT ( $, .RADIAN. ) );
#20 = PERSON_AND_ORGANIZATION ( #91, #117 ) ;
#21 = SHAPE_DEFINITION_REPRESENTATION ( #84, #88 ) ;
#22 = DIRECTION ( 'NONE',  ( -4.275831445896958607E-31, -1.000000000000000000, -1.224646799147353207E-16 ) ) ;
#23 = APPROVAL_STATUS ( 'not_yet_approved' ) ;
#24 = CC_DESIGN_PERSON_AND_ORGANIZATION_ASSIGNMENT ( #54, #95, ( #30 ) ) ;
#25 = FACE_OUTER_BOUND ( 'NONE', #143, .T. ) ;
#26 = DATE_TIME_ROLE ( 'classification_date' ) ;
#27 = EDGE_LOOP ( 'NONE', ( #75 ) ) ;
#28 = EDGE_CURVE ( 'NONE', #189, #189, #186, .T. ) ;
#29 = APPROVAL_PERSON_ORGANIZATION ( #121, #140, #158 ) ;
#30 = PRODUCT_DEFINITION_FORMATION_WITH_SPECIFIED_SOURCE ( 'ANY', '', #13, .NOT_KNOWN. ) ;
#31 = DATE_TIME_ROLE ( 'creation_date' ) ;
#32 = FACE_OUTER_BOUND ( 'NONE', #102, .T. ) ;
#33 = ADVANCED_FACE ( 'NONE', ( #41 ), #12, .F. ) ;
#34 = CARTESIAN_POINT ( 'NONE',  ( 1.066969589892033632E-14, 1.499999999999995559, 3.055922361726163494 ) ) ;
#35 = DIRECTION ( 'NONE',  ( -3.491481338843133355E-15, 1.224646799147353207E-16, -1.000000000000000000 ) ) ;
#36 = CALENDAR_DATE ( 2021, 25, 11 ) ;
#37 = ADVANCED_FACE ( 'NONE', ( #175, #89 ), #42, .T. ) ;
#38 = COORDINATED_UNIVERSAL_TIME_OFFSET ( 1, 0, .AHEAD. ) ;
#39 = DIRECTION ( 'NONE',  ( 4.275831445896959482E-31, 1.000000000000000000, 1.224646799147353207E-16 ) ) ;
#40 = PLANE ( 'NONE',  #43 ) ;
#41 = FACE_OUTER_BOUND ( 'NONE', #168, .T. ) ;
#42 = CYLINDRICAL_SURFACE ( 'NONE', #182, 1.499999999999998002 ) ;
#43 = AXIS2_PLACEMENT_3D ( 'NONE', #165, #196, #22 ) ;
#44 = DATE_AND_TIME ( #162, #188 ) ;
#45 = AXIS2_PLACEMENT_3D ( 'NONE', #76, #199, #39 ) ;
#46 = ORIENTED_EDGE ( 'NONE', *, *, #185, .T. ) ;
#47 = DIRECTION ( 'NONE',  ( 0.0000000000000000000, 1.000000000000000000, 0.0000000000000000000 ) ) ;
#48 = CC_DESIGN_DATE_AND_TIME_ASSIGNMENT ( #97, #26, ( #202 ) ) ;
#49 = CLOSED_SHELL ( 'NONE', ( #33, #37, #78, #6 ) ) ;
#50 = DIRECTION ( 'NONE',  ( 0.0000000000000000000, 1.000000000000000000, 0.0000000000000000000 ) ) ;
#51 = FACE_OUTER_BOUND ( 'NONE', #155, .T. ) ;
#52 = PERSON_AND_ORGANIZATION_ROLE ( 'creator' ) ;
#53 = CC_DESIGN_PERSON_AND_ORGANIZATION_ASSIGNMENT ( #20, #52, ( #93 ) ) ;
#54 = PERSON_AND_ORGANIZATION ( #91, #117 ) ;
#55 = EDGE_LOOP ( 'NONE', ( #80 ) ) ;
#56 = CARTESIAN_POINT ( 'NONE',  ( 1.066969589892033632E-14, 1.499999999999995559, 3.055922361726163494 ) ) ;
#57 = ADVANCED_FACE ( 'NONE', ( #142 ), #60, .T. ) ;
#58 = CIRCLE ( 'NONE', #183, 1.499999999999996003 ) ;
#59 = DIRECTION ( 'NONE',  ( 3.491481338843133355E-15, -1.224646799147353207E-16, 1.000000000000000000 ) ) ;
#60 = PLANE ( 'NONE',  #77 ) ;
#61 = ADVANCED_FACE ( 'NONE', ( #2, #32 ), #62, .T. ) ;
#62 = CONICAL_SURFACE ( 'NONE', #1, 1.499999999999996003, 0.4363323129985760551 ) ;
#63 = CONICAL_SURFACE ( 'NONE', #141, 1.200000000000000178, 0.7853981633974457255 ) ;
#64 = CC_DESIGN_PERSON_AND_ORGANIZATION_ASSIGNMENT ( #83, #115, ( #13 ) ) ;
#65 =( NAMED_UNIT ( * ) SI_UNIT ( $, .STERADIAN. ) SOLID_ANGLE_UNIT ( ) );
#66 = CARTESIAN_POINT ( 'NONE',  ( 1.066969589892033632E-14, -3.742425538730765764E-16, 3.055922361726163494 ) ) ;
#67 = CIRCLE ( 'NONE', #169, 1.499999999999996003 ) ;
#68 = CARTESIAN_POINT ( 'NONE',  ( 1.326762908760390423E-13, -4.653657836759941941E-15, 38.00000000000000000 ) ) ;
#69 = CARTESIAN_POINT ( 'NONE',  ( 0.0000000000000000000, 0.0000000000000000000, 0.0000000000000000000 ) ) ;
#70 = EDGE_CURVE ( 'NONE', #146, #146, #156, .T. ) ;
#71 = APPROVAL_DATE_TIME ( #8, #157 ) ;
#72 = LOCAL_TIME ( 14, 42, 39.00000000000000000, #172 ) ;
#73 = LOCAL_TIME ( 14, 42, 39.00000000000000000, #173 ) ;
#74 = DIRECTION ( 'NONE',  ( 4.275831445896958607E-31, 1.000000000000000000, 1.224646799147353207E-16 ) ) ;
#75 = ORIENTED_EDGE ( 'NONE', *, *, #28, .T. ) ;
#76 = CARTESIAN_POINT ( 'NONE',  ( -3.206873584422710963E-32, 1.124819836996390469E-33, -9.184850993605125634E-18 ) ) ;
#77 = AXIS2_PLACEMENT_3D ( 'NONE', #120, #18, #145 ) ;
#78 = ADVANCED_FACE ( 'NONE', ( #51, #161 ), #63, .T. ) ;
#79 = APPROVAL_STATUS ( 'not_yet_approved' ) ;
#80 = ORIENTED_EDGE ( 'NONE', *, *, #70, .T. ) ;
#81 = VERTEX_POINT ( 'NONE', #107 ) ;
#82 = PERSON_AND_ORGANIZATION ( #91, #117 ) ;
#83 = PERSON_AND_ORGANIZATION ( #91, #117 ) ;
#84 = PRODUCT_DEFINITION_SHAPE ( 'NONE', 'NONE',  #93 ) ;
#85 = APPROVAL_PERSON_ORGANIZATION ( #92, #157, #184 ) ;
#86 = EDGE_LOOP ( 'NONE', ( #101 ) ) ;
#87 = VERTEX_POINT ( 'NONE', #56 ) ;
#88 = ADVANCED_BREP_SHAPE_REPRESENTATION ( '961330', ( #194, #123, #5 ), #187 ) ;
#89 = FACE_OUTER_BOUND ( 'NONE', #197, .T. ) ;
#90 = APPLICATION_PROTOCOL_DEFINITION ( 'international standard', 'config_control_design', 1994, #105 ) ;
#91 = PERSON ( 'UNSPECIFIED', 'UNSPECIFIED', 'UNSPECIFIED', ('UNSPECIFIED'), ('UNSPECIFIED'), ('UNSPECIFIED') ) ;
#92 = PERSON_AND_ORGANIZATION ( #91, #117 ) ;
#93 = PRODUCT_DEFINITION ( 'UNKNOWN', '', #30, #126 ) ;
#94 = PERSON_AND_ORGANIZATION ( #91, #117 ) ;
#95 = PERSON_AND_ORGANIZATION_ROLE ( 'creator' ) ;
#96 = DIRECTION ( 'NONE',  ( 0.0000000000000000000, 1.000000000000000000, 0.0000000000000000000 ) ) ;
#97 = DATE_AND_TIME ( #3, #160 ) ;
#98 = FACE_OUTER_BOUND ( 'NONE', #27, .T. ) ;
#99 = ORIENTED_EDGE ( 'NONE', *, *, #70, .F. ) ;
#100 = APPLICATION_CONTEXT ( 'configuration controlled 3d designs of mechanical parts and assemblies' ) ;
#101 = ORIENTED_EDGE ( 'NONE', *, *, #136, .F. ) ;
#102 = EDGE_LOOP ( 'NONE', ( #46 ) ) ;
#103 = CARTESIAN_POINT ( 'NONE',  ( 0.0000000000000000000, 0.0000000000000000000, 0.0000000000000000000 ) ) ;
#104 = CC_DESIGN_APPROVAL ( #140, ( #93 ) ) ;
#105 = APPLICATION_CONTEXT ( 'configuration controlled 3d designs of mechanical parts and assemblies' ) ;
#106 = AXIS2_PLACEMENT_3D ( 'NONE', #118, #150, #74 ) ;
#107 = CARTESIAN_POINT ( 'NONE',  ( 1.316288464743861212E-13, 1.499999999999995781, 37.69999999999999574 ) ) ;
#108 = APPROVAL_PERSON_ORGANIZATION ( #94, #164, #116 ) ;
#109 = DIRECTION ( 'NONE',  ( 3.491481338843133355E-15, -1.224646799147353207E-16, 1.000000000000000000 ) ) ;
#110 = COORDINATED_UNIVERSAL_TIME_OFFSET ( 1, 0, .AHEAD. ) ;
#111 = CARTESIAN_POINT ( 'NONE',  ( 1.326762908760390423E-13, -4.653657836759941941E-15, 38.00000000000000000 ) ) ;
#112 = APPLICATION_PROTOCOL_DEFINITION ( 'international standard', 'config_control_design', 1994, #100 ) ;
#113 = APPROVAL_DATE_TIME ( #152, #164 ) ;
#114 = AXIS2_PLACEMENT_3D ( 'NONE', #200, #59, #119 ) ;
#115 = PERSON_AND_ORGANIZATION_ROLE ( 'design_owner' ) ;
#116 = APPROVAL_ROLE ( '' ) ;
#117 = ORGANIZATION ( 'UNSPECIFIED', 'UNSPECIFIED', '' ) ;
#118 = CARTESIAN_POINT ( 'NONE',  ( 1.326762908760390423E-13, 8.998558695971078593E-33, 38.00000000000000000 ) ) ;
#119 = DIRECTION ( 'NONE',  ( -4.275831445896958607E-31, -1.000000000000000000, -1.224646799147353207E-16 ) ) ;
#120 = CARTESIAN_POINT ( 'NONE',  ( 1.066969589892033474E-14, -8.835300436081462171E-16, 3.055922361726163050 ) ) ;
#121 = PERSON_AND_ORGANIZATION ( #91, #117 ) ;
#122 = DATE_AND_TIME ( #36, #72 ) ;
#123 = MANIFOLD_SOLID_BREP ( 'Corps-Déplacer/Copier1[2]', #198 ) ;
#124 = ORIENTED_EDGE ( 'NONE', *, *, #136, .T. ) ;
#125 = DIRECTION ( 'NONE',  ( -3.491481338843133355E-15, 1.224646799147353207E-16, -1.000000000000000000 ) ) ;
#126 = DESIGN_CONTEXT ( 'detailed design', #105, 'design' ) ;
#127 = CC_DESIGN_APPROVAL ( #164, ( #202 ) ) ;
#128 = DIRECTION ( 'NONE',  ( 0.0000000000000000000, -1.000000000000000000, 0.0000000000000000000 ) ) ;
#129 = PERSON_AND_ORGANIZATION ( #91, #117 ) ;
#130 = VERTEX_POINT ( 'NONE', #34 ) ;
#131 = DIRECTION ( 'NONE',  ( 0.0000000000000000000, 1.000000000000000000, 0.0000000000000000000 ) ) ;
#132 = DIRECTION ( 'NONE',  ( 0.0000000000000000000, 0.0000000000000000000, 1.000000000000000000 ) ) ;
#133 = UNCERTAINTY_MEASURE_WITH_UNIT (LENGTH_MEASURE( 1.000000000000000082E-05 ), #4, 'distance_accuracy_value', 'NONE');
#134 = PERSON_AND_ORGANIZATION_ROLE ( 'design_supplier' ) ;
#135 = APPROVAL_DATE_TIME ( #122, #140 ) ;
#136 = EDGE_CURVE ( 'NONE', #87, #87, #58, .T. ) ;
#137 = EDGE_LOOP ( 'NONE', ( #14 ) ) ;
#138 = AXIS2_PLACEMENT_3D ( 'NONE', #68, #125, #47 ) ;
#139 = CC_DESIGN_SECURITY_CLASSIFICATION ( #202, ( #30 ) ) ;
#140 = APPROVAL ( #176, 'UNSPECIFIED' ) ;
#141 = AXIS2_PLACEMENT_3D ( 'NONE', #111, #35, #131 ) ;
#142 = FACE_OUTER_BOUND ( 'NONE', #180, .T. ) ;
#143 = EDGE_LOOP ( 'NONE', ( #99 ) ) ;
#144 = PERSON_AND_ORGANIZATION_ROLE ( 'classification_officer' ) ;
#145 = DIRECTION ( 'NONE',  ( -4.275831445896958607E-31, -1.000000000000000000, -1.224646799147353207E-16 ) ) ;
#146 = VERTEX_POINT ( 'NONE', #147 ) ;
#147 = CARTESIAN_POINT ( 'NONE',  ( 1.326762908760390423E-13, 1.199999999999995515, 38.00000000000000000 ) ) ;
#148 = CALENDAR_DATE ( 2021, 25, 11 ) ;
#149 = PRODUCT_RELATED_PRODUCT_CATEGORY ( 'detail', '', ( #13 ) ) ;
#150 = DIRECTION ( 'NONE',  ( -3.491481338843133355E-15, 1.224646799147353207E-16, -1.000000000000000000 ) ) ;
#151 = DIRECTION ( 'NONE',  ( -3.491481338843133355E-15, 1.224646799147353207E-16, -1.000000000000000000 ) ) ;
#152 = DATE_AND_TIME ( #190, #73 ) ;
#153 = ORIENTED_EDGE ( 'NONE', *, *, #177, .T. ) ;
#154 = ADVANCED_FACE ( 'NONE', ( #98 ), #40, .F. ) ;
#155 = EDGE_LOOP ( 'NONE', ( #166 ) ) ;
#156 = CIRCLE ( 'NONE', #138, 1.200000000000000178 ) ;
#157 = APPROVAL ( #79, 'UNSPECIFIED' ) ;
#158 = APPROVAL_ROLE ( '' ) ;
#159 = DIRECTION ( 'NONE',  ( -3.491481338843133355E-15, 1.224646799147353207E-16, -1.000000000000000000 ) ) ;
#160 = LOCAL_TIME ( 14, 42, 39.00000000000000000, #110 ) ;
#161 = FACE_BOUND ( 'NONE', #55, .T. ) ;
#162 = CALENDAR_DATE ( 2021, 25, 11 ) ;
#163 = PLANE ( 'NONE',  #106 ) ;
#164 = APPROVAL ( #23, 'UNSPECIFIED' ) ;
#165 = CARTESIAN_POINT ( 'NONE',  ( -1.603436792211355482E-32, 5.624099184981952345E-34, -4.592425496802562817E-18 ) ) ;
#166 = ORIENTED_EDGE ( 'NONE', *, *, #177, .F. ) ;
#167 = DIRECTION ( 'NONE',  ( 4.275831445896959482E-31, 1.000000000000000000, 1.224646799147353207E-16 ) ) ;
#168 = EDGE_LOOP ( 'NONE', ( #124 ) ) ;
#169 = AXIS2_PLACEMENT_3D ( 'NONE', #16, #17, #50 ) ;
#170 = CARTESIAN_POINT ( 'NONE',  ( 0.0000000000000000000, 0.07499999999999980294, 0.0000000000000000000 ) ) ;
#171 = COORDINATED_UNIVERSAL_TIME_OFFSET ( 1, 0, .AHEAD. ) ;
#172 = COORDINATED_UNIVERSAL_TIME_OFFSET ( 1, 0, .AHEAD. ) ;
#173 = COORDINATED_UNIVERSAL_TIME_OFFSET ( 1, 0, .AHEAD. ) ;
#174 = CC_DESIGN_APPROVAL ( #157, ( #30 ) ) ;
#175 = FACE_OUTER_BOUND ( 'NONE', #86, .T. ) ;
#176 = APPROVAL_STATUS ( 'not_yet_approved' ) ;
#177 = EDGE_CURVE ( 'NONE', #81, #81, #9, .T. ) ;
#178 = DIRECTION ( 'NONE',  ( -3.491481338843133355E-15, 1.224646799147353207E-16, -1.000000000000000000 ) ) ;
#179 = LOCAL_TIME ( 14, 42, 39.00000000000000000, #38 ) ;
#180 = EDGE_LOOP ( 'NONE', ( #11 ) ) ;
#181 = SECURITY_CLASSIFICATION_LEVEL ( 'unclassified' ) ;
#182 = AXIS2_PLACEMENT_3D ( 'NONE', #103, #178, #167 ) ;
#183 = AXIS2_PLACEMENT_3D ( 'NONE', #191, #159, #96 ) ;
#184 = APPROVAL_ROLE ( '' ) ;
#185 = EDGE_CURVE ( 'NONE', #130, #130, #67, .T. ) ;
#186 = CIRCLE ( 'NONE', #45, 0.07499999999999980294 ) ;
#187 =( GEOMETRIC_REPRESENTATION_CONTEXT ( 3 ) GLOBAL_UNCERTAINTY_ASSIGNED_CONTEXT ( ( #133 ) ) GLOBAL_UNIT_ASSIGNED_CONTEXT ( ( #4, #19, #65 ) ) REPRESENTATION_CONTEXT ( 'NONE', 'WORKASPACE' ) );
#188 = LOCAL_TIME ( 14, 42, 39.00000000000000000, #171 ) ;
#189 = VERTEX_POINT ( 'NONE', #170 ) ;
#190 = CALENDAR_DATE ( 2021, 25, 11 ) ;
#191 = CARTESIAN_POINT ( 'NONE',  ( 1.066969589892033632E-14, -3.742425538730765764E-16, 3.055922361726163494 ) ) ;
#192 = DIRECTION ( 'NONE',  ( 1.000000000000000000, 0.0000000000000000000, 0.0000000000000000000 ) ) ;
#193 = CC_DESIGN_PERSON_AND_ORGANIZATION_ASSIGNMENT ( #129, #144, ( #202 ) ) ;
#194 = MANIFOLD_SOLID_BREP ( 'Corps-Déplacer/Copier1[1]', #49 ) ;
#195 = MECHANICAL_CONTEXT ( 'NONE', #100, 'mechanical' ) ;
#196 = DIRECTION ( 'NONE',  ( 3.491481338843133355E-15, -1.224646799147353207E-16, 1.000000000000000000 ) ) ;
#197 = EDGE_LOOP ( 'NONE', ( #153 ) ) ;
#198 = CLOSED_SHELL ( 'NONE', ( #154, #61, #57 ) ) ;
#199 = DIRECTION ( 'NONE',  ( -3.491481338843133355E-15, 1.224646799147353207E-16, -1.000000000000000000 ) ) ;
#200 = CARTESIAN_POINT ( 'NONE',  ( 1.066969589892033474E-14, -8.835300436081462171E-16, 3.055922361726163050 ) ) ;
#201 = CC_DESIGN_PERSON_AND_ORGANIZATION_ASSIGNMENT ( #82, #134, ( #30 ) ) ;
#202 = SECURITY_CLASSIFICATION ( '', '', #181 ) ;
#203 = CC_DESIGN_DATE_AND_TIME_ASSIGNMENT ( #44, #31, ( #93 ) ) ;
ENDSEC;
END-ISO-10303-21;
