ISO-10303-21;
HEADER;
FILE_DESCRIPTION (( 'STEP AP203' ),
    '1' );
FILE_NAME ('961329.step',
    '2021-11-25T13:42:38',
    ( '' ),
    ( '' ),
    'SwSTEP 2.0',
    'SolidWorks 2019',
    '' );
FILE_SCHEMA (( 'CONFIG_CONTROL_DESIGN' ));
ENDSEC;

DATA;
#1 = CLOSED_SHELL ( 'NONE', ( #148, #103, #32, #25 ) ) ;
#2 = CC_DESIGN_PERSON_AND_ORGANIZATION_ASSIGNMENT ( #19, #191, ( #58 ) ) ;
#3 = EDGE_LOOP ( 'NONE', ( #154 ) ) ;
#4 = PLANE ( 'NONE',  #182 ) ;
#5 = VERTEX_POINT ( 'NONE', #198 ) ;
#6 = VERTEX_POINT ( 'NONE', #46 ) ;
#7 = EDGE_CURVE ( 'NONE', #6, #6, #70, .T. ) ;
#8 = LOCAL_TIME ( 14, 42, 38.00000000000000000, #31 ) ;
#9 = CARTESIAN_POINT ( 'NONE',  ( 1.085688354626981596E-14, -3.808082127129552158E-16, 3.109535034738903470 ) ) ;
#10 = CALENDAR_DATE ( 2021, 25, 11 ) ;
#11 = CYLINDRICAL_SURFACE ( 'NONE', #104, 1.499999999999998002 ) ;
#12 = DATE_AND_TIME ( #49, #39 ) ;
#13 = DIRECTION ( 'NONE',  ( 3.491481338843133355E-15, -1.224646799147353207E-16, 1.000000000000000000 ) ) ;
#14 = AXIS2_PLACEMENT_3D ( 'NONE', #55, #166, #128 ) ;
#15 = CARTESIAN_POINT ( 'NONE',  ( 1.085688354626981596E-14, 1.499999999999995559, 3.109535034738903470 ) ) ;
#16 = MANIFOLD_SOLID_BREP ( 'Corps-Déplacer/Copier1[1]', #1 ) ;
#17 = DATE_AND_TIME ( #61, #8 ) ;
#18 = DATE_AND_TIME ( #173, #85 ) ;
#19 = PERSON_AND_ORGANIZATION ( #40, #35 ) ;
#20 = APPLICATION_CONTEXT ( 'configuration controlled 3d designs of mechanical parts and assemblies' ) ;
#21 = FACE_OUTER_BOUND ( 'NONE', #91, .T. ) ;
#22 = CC_DESIGN_APPROVAL ( #45, ( #176 ) ) ;
#23 = DIRECTION ( 'NONE',  ( -4.275831445896958607E-31, -1.000000000000000000, -1.224646799147353207E-16 ) ) ;
#24 = DIRECTION ( 'NONE',  ( -3.491481338843133355E-15, 1.224646799147353207E-16, -1.000000000000000000 ) ) ;
#25 = ADVANCED_FACE ( 'NONE', ( #77 ), #56, .F. ) ;
#26 = APPROVAL_ROLE ( '' ) ;
#27 = FACE_OUTER_BOUND ( 'NONE', #167, .T. ) ;
#28 = MECHANICAL_CONTEXT ( 'NONE', #71, 'mechanical' ) ;
#29 = DIRECTION ( 'NONE',  ( 4.275831445896959482E-31, 1.000000000000000000, 1.224646799147353207E-16 ) ) ;
#30 = PERSON_AND_ORGANIZATION_ROLE ( 'design_owner' ) ;
#31 = COORDINATED_UNIVERSAL_TIME_OFFSET ( 1, 0, .AHEAD. ) ;
#32 = ADVANCED_FACE ( 'NONE', ( #64, #124 ), #201, .T. ) ;
#33 = DIRECTION ( 'NONE',  ( 0.0000000000000000000, 0.0000000000000000000, 1.000000000000000000 ) ) ;
#34 = CC_DESIGN_APPROVAL ( #190, ( #145 ) ) ;
#35 = ORGANIZATION ( 'UNSPECIFIED', 'UNSPECIFIED', '' ) ;
#36 = AXIS2_PLACEMENT_3D ( 'NONE', #170, #24, #172 ) ;
#37 = DIRECTION ( 'NONE',  ( 3.491481338843133355E-15, -1.224646799147353207E-16, 1.000000000000000000 ) ) ;
#38 = PRODUCT_DEFINITION_SHAPE ( 'NONE', 'NONE',  #145 ) ;
#39 = LOCAL_TIME ( 14, 42, 38.00000000000000000, #96 ) ;
#40 = PERSON ( 'UNSPECIFIED', 'UNSPECIFIED', 'UNSPECIFIED', ('UNSPECIFIED'), ('UNSPECIFIED'), ('UNSPECIFIED') ) ;
#41 = EDGE_LOOP ( 'NONE', ( #44 ) ) ;
#42 = DIRECTION ( 'NONE',  ( 0.0000000000000000000, 1.000000000000000000, 0.0000000000000000000 ) ) ;
#43 =( NAMED_UNIT ( * ) PLANE_ANGLE_UNIT ( ) SI_UNIT ( $, .RADIAN. ) );
#44 = ORIENTED_EDGE ( 'NONE', *, *, #59, .F. ) ;
#45 = APPROVAL ( #114, 'UNSPECIFIED' ) ;
#46 = CARTESIAN_POINT ( 'NONE',  ( 1.085688354626981596E-14, 1.499999999999995559, 3.109535034738903470 ) ) ;
#47 = DATE_AND_TIME ( #147, #100 ) ;
#48 = EDGE_LOOP ( 'NONE', ( #157 ) ) ;
#49 = CALENDAR_DATE ( 2021, 25, 11 ) ;
#50 = FACE_BOUND ( 'NONE', #41, .T. ) ;
#51 = DESIGN_CONTEXT ( 'detailed design', #20, 'design' ) ;
#52 = PERSON_AND_ORGANIZATION_ROLE ( 'classification_officer' ) ;
#53 = CC_DESIGN_DATE_AND_TIME_ASSIGNMENT ( #18, #125, ( #145 ) ) ;
#54 = APPROVAL_PERSON_ORGANIZATION ( #175, #190, #26 ) ;
#55 = CARTESIAN_POINT ( 'NONE',  ( 1.085688354626981596E-14, 1.124819836996389648E-32, 3.109535034738903470 ) ) ;
#56 = PLANE ( 'NONE',  #126 ) ;
#57 = DIRECTION ( 'NONE',  ( 0.0000000000000000000, 1.000000000000000000, 0.0000000000000000000 ) ) ;
#58 = PRODUCT_DEFINITION_FORMATION_WITH_SPECIFIED_SOURCE ( 'ANY', '', #130, .NOT_KNOWN. ) ;
#59 = EDGE_CURVE ( 'NONE', #75, #75, #76, .T. ) ;
#60 = DIRECTION ( 'NONE',  ( -4.275831445896958607E-31, -1.000000000000000000, -1.224646799147353207E-16 ) ) ;
#61 = CALENDAR_DATE ( 2021, 25, 11 ) ;
#62 = DIRECTION ( 'NONE',  ( 4.275831445896958607E-31, 1.000000000000000000, 1.224646799147353207E-16 ) ) ;
#63 = PERSON_AND_ORGANIZATION ( #40, #35 ) ;
#64 = FACE_OUTER_BOUND ( 'NONE', #48, .T. ) ;
#65 = APPROVAL_STATUS ( 'not_yet_approved' ) ;
#66 = CC_DESIGN_PERSON_AND_ORGANIZATION_ASSIGNMENT ( #177, #52, ( #176 ) ) ;
#67 = DIRECTION ( 'NONE',  ( 1.000000000000000000, 0.0000000000000000000, 0.0000000000000000000 ) ) ;
#68 = CC_DESIGN_PERSON_AND_ORGANIZATION_ASSIGNMENT ( #127, #30, ( #130 ) ) ;
#69 = PLANE ( 'NONE',  #94 ) ;
#70 = CIRCLE ( 'NONE', #146, 1.499999999999996003 ) ;
#71 = APPLICATION_CONTEXT ( 'configuration controlled 3d designs of mechanical parts and assemblies' ) ;
#72 = CC_DESIGN_SECURITY_CLASSIFICATION ( #176, ( #58 ) ) ;
#73 = DIRECTION ( 'NONE',  ( -3.491481338843133355E-15, 1.224646799147353207E-16, -1.000000000000000000 ) ) ;
#74 = EDGE_CURVE ( 'NONE', #171, #171, #131, .T. ) ;
#75 = VERTEX_POINT ( 'NONE', #115 ) ;
#76 = CIRCLE ( 'NONE', #36, 0.05000000000000001665 ) ;
#77 = FACE_OUTER_BOUND ( 'NONE', #113, .T. ) ;
#78 = CARTESIAN_POINT ( 'NONE',  ( -4.774779157295020288E-33, 1.674767081399989691E-34, -1.367551103359783264E-18 ) ) ;
#79 = PERSON_AND_ORGANIZATION ( #40, #35 ) ;
#80 = EDGE_LOOP ( 'NONE', ( #134 ) ) ;
#81 = APPLICATION_PROTOCOL_DEFINITION ( 'international standard', 'config_control_design', 1994, #71 ) ;
#82 = CONICAL_SURFACE ( 'NONE', #118, 1.499999999999996003, 0.4363323129985759441 ) ;
#83 = CARTESIAN_POINT ( 'NONE',  ( 0.0000000000000000000, 0.0000000000000000000, 0.0000000000000000000 ) ) ;
#84 = CC_DESIGN_PERSON_AND_ORGANIZATION_ASSIGNMENT ( #79, #139, ( #58 ) ) ;
#85 = LOCAL_TIME ( 14, 42, 38.00000000000000000, #186 ) ;
#86 = FACE_OUTER_BOUND ( 'NONE', #138, .T. ) ;
#87 = COORDINATED_UNIVERSAL_TIME_OFFSET ( 1, 0, .AHEAD. ) ;
#88 = DIRECTION ( 'NONE',  ( -3.491481338843133355E-15, 1.224646799147353207E-16, -1.000000000000000000 ) ) ;
#89 = CC_DESIGN_APPROVAL ( #119, ( #58 ) ) ;
#90 = MANIFOLD_SOLID_BREP ( 'Corps-Déplacer/Copier1[2]', #129 ) ;
#91 = EDGE_LOOP ( 'NONE', ( #184 ) ) ;
#92 = ORIENTED_EDGE ( 'NONE', *, *, #7, .F. ) ;
#93 = EDGE_LOOP ( 'NONE', ( #92 ) ) ;
#94 = AXIS2_PLACEMENT_3D ( 'NONE', #193, #152, #60 ) ;
#95 = ORIENTED_EDGE ( 'NONE', *, *, #165, .T. ) ;
#96 = COORDINATED_UNIVERSAL_TIME_OFFSET ( 1, 0, .AHEAD. ) ;
#97 =( NAMED_UNIT ( * ) SI_UNIT ( $, .STERADIAN. ) SOLID_ANGLE_UNIT ( ) );
#98 = FACE_OUTER_BOUND ( 'NONE', #3, .T. ) ;
#99 = APPROVAL_STATUS ( 'not_yet_approved' ) ;
#100 = LOCAL_TIME ( 14, 42, 38.00000000000000000, #87 ) ;
#101 = PERSON_AND_ORGANIZATION ( #40, #35 ) ;
#102 = DIRECTION ( 'NONE',  ( 0.0000000000000000000, -1.000000000000000000, 0.0000000000000000000 ) ) ;
#103 = ADVANCED_FACE ( 'NONE', ( #121, #27 ), #11, .T. ) ;
#104 = AXIS2_PLACEMENT_3D ( 'NONE', #151, #140, #29 ) ;
#105 = CARTESIAN_POINT ( 'NONE',  ( 1.326762908760390423E-13, -4.653657836759941941E-15, 38.00000000000000000 ) ) ;
#106 = AXIS2_PLACEMENT_3D ( 'NONE', #105, #185, #110 ) ;
#107 = ORIENTED_EDGE ( 'NONE', *, *, #74, .F. ) ;
#108 = CC_DESIGN_DATE_AND_TIME_ASSIGNMENT ( #47, #112, ( #176 ) ) ;
#109 = SHAPE_DEFINITION_REPRESENTATION ( #38, #178 ) ;
#110 = DIRECTION ( 'NONE',  ( 0.0000000000000000000, 1.000000000000000000, 0.0000000000000000000 ) ) ;
#111 = PERSON_AND_ORGANIZATION ( #40, #35 ) ;
#112 = DATE_TIME_ROLE ( 'classification_date' ) ;
#113 = EDGE_LOOP ( 'NONE', ( #196 ) ) ;
#114 = APPROVAL_STATUS ( 'not_yet_approved' ) ;
#115 = CARTESIAN_POINT ( 'NONE',  ( 1.182959891489475848E-32, 0.05000000000000001665, 3.388131789017201356E-18 ) ) ;
#116 = CIRCLE ( 'NONE', #179, 1.200000000000000178 ) ;
#117 = CARTESIAN_POINT ( 'NONE',  ( 1.085688354626981596E-14, -3.808082127129552158E-16, 3.109535034738903470 ) ) ;
#118 = AXIS2_PLACEMENT_3D ( 'NONE', #117, #37, #102 ) ;
#119 = APPROVAL ( #65, 'UNSPECIFIED' ) ;
#120 = AXIS2_PLACEMENT_3D ( 'NONE', #83, #33, #67 ) ;
#121 = FACE_OUTER_BOUND ( 'NONE', #93, .T. ) ;
#122 = CARTESIAN_POINT ( 'NONE',  ( 1.085688354626981596E-14, -3.808082127129552158E-16, 3.109535034738903470 ) ) ;
#123 =( GEOMETRIC_REPRESENTATION_CONTEXT ( 3 ) GLOBAL_UNCERTAINTY_ASSIGNED_CONTEXT ( ( #133 ) ) GLOBAL_UNIT_ASSIGNED_CONTEXT ( ( #160, #43, #97 ) ) REPRESENTATION_CONTEXT ( 'NONE', 'WORKASPACE' ) );
#124 = FACE_BOUND ( 'NONE', #80, .T. ) ;
#125 = DATE_TIME_ROLE ( 'creation_date' ) ;
#126 = AXIS2_PLACEMENT_3D ( 'NONE', #137, #199, #62 ) ;
#127 = PERSON_AND_ORGANIZATION ( #40, #35 ) ;
#128 = DIRECTION ( 'NONE',  ( -4.275831445896958607E-31, -1.000000000000000000, -1.224646799147353207E-16 ) ) ;
#129 = CLOSED_SHELL ( 'NONE', ( #142, #195, #202 ) ) ;
#130 = PRODUCT ( '961329', '961329', '', ( #28 ) ) ;
#131 = CIRCLE ( 'NONE', #143, 1.499999999999996003 ) ;
#132 = SECURITY_CLASSIFICATION_LEVEL ( 'unclassified' ) ;
#133 = UNCERTAINTY_MEASURE_WITH_UNIT (LENGTH_MEASURE( 1.000000000000000082E-05 ), #160, 'distance_accuracy_value', 'NONE');
#134 = ORIENTED_EDGE ( 'NONE', *, *, #168, .T. ) ;
#135 = FACE_OUTER_BOUND ( 'NONE', #187, .T. ) ;
#136 = APPROVAL_PERSON_ORGANIZATION ( #101, #45, #161 ) ;
#137 = CARTESIAN_POINT ( 'NONE',  ( 1.326762908760390423E-13, 8.998558695971078593E-33, 38.00000000000000000 ) ) ;
#138 = EDGE_LOOP ( 'NONE', ( #107 ) ) ;
#139 = PERSON_AND_ORGANIZATION_ROLE ( 'creator' ) ;
#140 = DIRECTION ( 'NONE',  ( -3.491481338843133355E-15, 1.224646799147353207E-16, -1.000000000000000000 ) ) ;
#141 = VERTEX_POINT ( 'NONE', #197 ) ;
#142 = ADVANCED_FACE ( 'NONE', ( #98 ), #4, .F. ) ;
#143 = AXIS2_PLACEMENT_3D ( 'NONE', #122, #181, #155 ) ;
#144 = COORDINATED_UNIVERSAL_TIME_OFFSET ( 1, 0, .AHEAD. ) ;
#145 = PRODUCT_DEFINITION ( 'UNKNOWN', '', #58, #51 ) ;
#146 = AXIS2_PLACEMENT_3D ( 'NONE', #9, #200, #42 ) ;
#147 = CALENDAR_DATE ( 2021, 25, 11 ) ;
#148 = ADVANCED_FACE ( 'NONE', ( #135 ), #150, .F. ) ;
#149 = AXIS2_PLACEMENT_3D ( 'NONE', #164, #73, #57 ) ;
#150 = PLANE ( 'NONE',  #14 ) ;
#151 = CARTESIAN_POINT ( 'NONE',  ( 0.0000000000000000000, 0.0000000000000000000, 0.0000000000000000000 ) ) ;
#152 = DIRECTION ( 'NONE',  ( 3.491481338843133355E-15, -1.224646799147353207E-16, 1.000000000000000000 ) ) ;
#153 = CC_DESIGN_PERSON_AND_ORGANIZATION_ASSIGNMENT ( #63, #188, ( #145 ) ) ;
#154 = ORIENTED_EDGE ( 'NONE', *, *, #59, .T. ) ;
#155 = DIRECTION ( 'NONE',  ( 0.0000000000000000000, 1.000000000000000000, 0.0000000000000000000 ) ) ;
#156 = APPROVAL_DATE_TIME ( #17, #45 ) ;
#157 = ORIENTED_EDGE ( 'NONE', *, *, #165, .F. ) ;
#158 = DATE_AND_TIME ( #10, #192 ) ;
#159 = APPROVAL_DATE_TIME ( #12, #119 ) ;
#160 =( LENGTH_UNIT ( ) NAMED_UNIT ( * ) SI_UNIT ( .MILLI., .METRE. ) );
#161 = APPROVAL_ROLE ( '' ) ;
#162 = APPROVAL_PERSON_ORGANIZATION ( #111, #119, #203 ) ;
#163 = APPROVAL_DATE_TIME ( #158, #190 ) ;
#164 = CARTESIAN_POINT ( 'NONE',  ( 1.316288464743861212E-13, -4.616918432785521081E-15, 37.69999999999999574 ) ) ;
#165 = EDGE_CURVE ( 'NONE', #5, #5, #174, .T. ) ;
#166 = DIRECTION ( 'NONE',  ( 3.491481338843133355E-15, -1.224646799147353207E-16, 1.000000000000000000 ) ) ;
#167 = EDGE_LOOP ( 'NONE', ( #95 ) ) ;
#168 = EDGE_CURVE ( 'NONE', #141, #141, #116, .T. ) ;
#169 = CARTESIAN_POINT ( 'NONE',  ( 1.326762908760390423E-13, -4.653657836759941941E-15, 38.00000000000000000 ) ) ;
#170 = CARTESIAN_POINT ( 'NONE',  ( -9.549558314590040576E-33, 3.349534162799979382E-34, -2.735102206719566528E-18 ) ) ;
#171 = VERTEX_POINT ( 'NONE', #15 ) ;
#172 = DIRECTION ( 'NONE',  ( 4.275831445896958607E-31, 1.000000000000000000, 1.224646799147353207E-16 ) ) ;
#173 = CALENDAR_DATE ( 2021, 25, 11 ) ;
#174 = CIRCLE ( 'NONE', #149, 1.500000000000000222 ) ;
#175 = PERSON_AND_ORGANIZATION ( #40, #35 ) ;
#176 = SECURITY_CLASSIFICATION ( '', '', #132 ) ;
#177 = PERSON_AND_ORGANIZATION ( #40, #35 ) ;
#178 = ADVANCED_BREP_SHAPE_REPRESENTATION ( '961329', ( #16, #90, #120 ), #123 ) ;
#179 = AXIS2_PLACEMENT_3D ( 'NONE', #169, #88, #183 ) ;
#180 = ORIENTED_EDGE ( 'NONE', *, *, #7, .T. ) ;
#181 = DIRECTION ( 'NONE',  ( -3.491481338843133355E-15, 1.224646799147353207E-16, -1.000000000000000000 ) ) ;
#182 = AXIS2_PLACEMENT_3D ( 'NONE', #78, #13, #23 ) ;
#183 = DIRECTION ( 'NONE',  ( 0.0000000000000000000, 1.000000000000000000, 0.0000000000000000000 ) ) ;
#184 = ORIENTED_EDGE ( 'NONE', *, *, #74, .T. ) ;
#185 = DIRECTION ( 'NONE',  ( -3.491481338843133355E-15, 1.224646799147353207E-16, -1.000000000000000000 ) ) ;
#186 = COORDINATED_UNIVERSAL_TIME_OFFSET ( 1, 0, .AHEAD. ) ;
#187 = EDGE_LOOP ( 'NONE', ( #180 ) ) ;
#188 = PERSON_AND_ORGANIZATION_ROLE ( 'creator' ) ;
#189 = APPLICATION_PROTOCOL_DEFINITION ( 'international standard', 'config_control_design', 1994, #20 ) ;
#190 = APPROVAL ( #99, 'UNSPECIFIED' ) ;
#191 = PERSON_AND_ORGANIZATION_ROLE ( 'design_supplier' ) ;
#192 = LOCAL_TIME ( 14, 42, 38.00000000000000000, #144 ) ;
#193 = CARTESIAN_POINT ( 'NONE',  ( 1.085688354626981596E-14, 1.124819836996389648E-32, 3.109535034738903470 ) ) ;
#194 = PRODUCT_RELATED_PRODUCT_CATEGORY ( 'detail', '', ( #130 ) ) ;
#195 = ADVANCED_FACE ( 'NONE', ( #50, #21 ), #82, .T. ) ;
#196 = ORIENTED_EDGE ( 'NONE', *, *, #168, .F. ) ;
#197 = CARTESIAN_POINT ( 'NONE',  ( 1.326762908760390423E-13, 1.199999999999995515, 38.00000000000000000 ) ) ;
#198 = CARTESIAN_POINT ( 'NONE',  ( 1.316288464743861212E-13, 1.499999999999995781, 37.69999999999999574 ) ) ;
#199 = DIRECTION ( 'NONE',  ( -3.491481338843133355E-15, 1.224646799147353207E-16, -1.000000000000000000 ) ) ;
#200 = DIRECTION ( 'NONE',  ( -3.491481338843133355E-15, 1.224646799147353207E-16, -1.000000000000000000 ) ) ;
#201 = CONICAL_SURFACE ( 'NONE', #106, 1.200000000000000178, 0.7853981633974457255 ) ;
#202 = ADVANCED_FACE ( 'NONE', ( #86 ), #69, .T. ) ;
#203 = APPROVAL_ROLE ( '' ) ;
ENDSEC;
END-ISO-10303-21;
