ISO-10303-21;
HEADER;
FILE_DESCRIPTION (( 'STEP AP203' ),
    '1' );
FILE_NAME ('961328.step',
    '2021-11-25T13:42:38',
    ( '' ),
    ( '' ),
    'SwSTEP 2.0',
    'SolidWorks 2019',
    '' );
FILE_SCHEMA (( 'CONFIG_CONTROL_DESIGN' ));
ENDSEC;

DATA;
#1 = PRODUCT_DEFINITION_SHAPE ( 'NONE', 'NONE',  #83 ) ;
#2 = AXIS2_PLACEMENT_3D ( 'NONE', #176, #53, #145 ) ;
#3 = DIRECTION ( 'NONE',  ( 4.275831445896959482E-31, 1.000000000000000000, 1.224646799147353207E-16 ) ) ;
#4 = CARTESIAN_POINT ( 'NONE',  ( 1.093175860520960845E-14, -3.834344762489066222E-16, 3.130980103943999282 ) ) ;
#5 = CC_DESIGN_PERSON_AND_ORGANIZATION_ASSIGNMENT ( #156, #10, ( #196 ) ) ;
#6 = AXIS2_PLACEMENT_3D ( 'NONE', #55, #26, #202 ) ;
#7 = PERSON_AND_ORGANIZATION_ROLE ( 'creator' ) ;
#8 = COORDINATED_UNIVERSAL_TIME_OFFSET ( 1, 0, .AHEAD. ) ;
#9 = ORIENTED_EDGE ( 'NONE', *, *, #79, .T. ) ;
#10 = PERSON_AND_ORGANIZATION_ROLE ( 'design_supplier' ) ;
#11 = MECHANICAL_CONTEXT ( 'NONE', #112, 'mechanical' ) ;
#12 = CARTESIAN_POINT ( 'NONE',  ( 1.093175860520960845E-14, -9.052307815213288824E-16, 3.130980103943999282 ) ) ;
#13 = ADVANCED_FACE ( 'NONE', ( #58 ), #157, .F. ) ;
#14 = UNCERTAINTY_MEASURE_WITH_UNIT (LENGTH_MEASURE( 1.000000000000000082E-05 ), #103, 'distance_accuracy_value', 'NONE');
#15 = CARTESIAN_POINT ( 'NONE',  ( 1.316288464743861212E-13, 1.499999999999995781, 37.69999999999999574 ) ) ;
#16 = ADVANCED_FACE ( 'NONE', ( #173, #158 ), #168, .T. ) ;
#17 = CARTESIAN_POINT ( 'NONE',  ( 0.0000000000000000000, 0.0000000000000000000, 0.0000000000000000000 ) ) ;
#18 = DIRECTION ( 'NONE',  ( -4.275831445896958607E-31, -1.000000000000000000, -1.224646799147353207E-16 ) ) ;
#19 = DIRECTION ( 'NONE',  ( -3.491481338843133355E-15, 1.224646799147353207E-16, -1.000000000000000000 ) ) ;
#20 = APPROVAL ( #181, 'UNSPECIFIED' ) ;
#21 = PLANE ( 'NONE',  #117 ) ;
#22 = DATE_AND_TIME ( #74, #123 ) ;
#23 = DIRECTION ( 'NONE',  ( -4.275831445896958607E-31, -1.000000000000000000, -1.224646799147353207E-16 ) ) ;
#24 = PERSON_AND_ORGANIZATION ( #70, #81 ) ;
#25 = APPROVAL_DATE_TIME ( #56, #124 ) ;
#26 = DIRECTION ( 'NONE',  ( 0.0000000000000000000, 0.0000000000000000000, 1.000000000000000000 ) ) ;
#27 = ORIENTED_EDGE ( 'NONE', *, *, #171, .F. ) ;
#28 = AXIS2_PLACEMENT_3D ( 'NONE', #95, #19, #30 ) ;
#29 = ORIENTED_EDGE ( 'NONE', *, *, #179, .F. ) ;
#30 = DIRECTION ( 'NONE',  ( 4.275831445896958607E-31, 1.000000000000000000, 1.224646799147353207E-16 ) ) ;
#31 = APPROVAL ( #72, 'UNSPECIFIED' ) ;
#32 = CARTESIAN_POINT ( 'NONE',  ( 1.093175860520960845E-14, -3.834344762489066222E-16, 3.130980103943999282 ) ) ;
#33 = PRODUCT ( '961328', '961328', '', ( #11 ) ) ;
#34 = CARTESIAN_POINT ( 'NONE',  ( 1.316288464743861212E-13, -4.616918432785521081E-15, 37.69999999999999574 ) ) ;
#35 = DIRECTION ( 'NONE',  ( -3.491481338843133355E-15, 1.224646799147353207E-16, -1.000000000000000000 ) ) ;
#36 = EDGE_CURVE ( 'NONE', #192, #192, #149, .T. ) ;
#37 = AXIS2_PLACEMENT_3D ( 'NONE', #135, #111, #18 ) ;
#38 = DIRECTION ( 'NONE',  ( -3.491481338843133355E-15, 1.224646799147353207E-16, -1.000000000000000000 ) ) ;
#39 = APPROVAL_STATUS ( 'not_yet_approved' ) ;
#40 = LOCAL_TIME ( 14, 42, 38.00000000000000000, #44 ) ;
#41 = PERSON_AND_ORGANIZATION_ROLE ( 'design_owner' ) ;
#42 = ORIENTED_EDGE ( 'NONE', *, *, #69, .F. ) ;
#43 = CALENDAR_DATE ( 2021, 25, 11 ) ;
#44 = COORDINATED_UNIVERSAL_TIME_OFFSET ( 1, 0, .AHEAD. ) ;
#45 = DIRECTION ( 'NONE',  ( -4.275831445896958607E-31, -1.000000000000000000, -1.224646799147353207E-16 ) ) ;
#46 = ADVANCED_FACE ( 'NONE', ( #52, #182 ), #125, .T. ) ;
#47 = AXIS2_PLACEMENT_3D ( 'NONE', #141, #167, #195 ) ;
#48 = CARTESIAN_POINT ( 'NONE',  ( 1.326762908760390423E-13, 1.199999999999995515, 38.00000000000000000 ) ) ;
#49 = FACE_BOUND ( 'NONE', #153, .T. ) ;
#50 = CC_DESIGN_APPROVAL ( #20, ( #83 ) ) ;
#51 = DATE_AND_TIME ( #172, #40 ) ;
#52 = FACE_OUTER_BOUND ( 'NONE', #105, .T. ) ;
#53 = DIRECTION ( 'NONE',  ( -3.491481338843133355E-15, 1.224646799147353207E-16, -1.000000000000000000 ) ) ;
#54 = ADVANCED_FACE ( 'NONE', ( #49, #190 ), #178, .T. ) ;
#55 = CARTESIAN_POINT ( 'NONE',  ( 0.0000000000000000000, 0.0000000000000000000, 0.0000000000000000000 ) ) ;
#56 = DATE_AND_TIME ( #97, #76 ) ;
#57 =( NAMED_UNIT ( * ) SI_UNIT ( $, .STERADIAN. ) SOLID_ANGLE_UNIT ( ) );
#58 = FACE_OUTER_BOUND ( 'NONE', #174, .T. ) ;
#59 = PERSON_AND_ORGANIZATION_ROLE ( 'creator' ) ;
#60 = DIRECTION ( 'NONE',  ( 3.491481338843133355E-15, -1.224646799147353207E-16, 1.000000000000000000 ) ) ;
#61 = EDGE_LOOP ( 'NONE', ( #29 ) ) ;
#62 = AXIS2_PLACEMENT_3D ( 'NONE', #34, #92, #163 ) ;
#63 = APPROVAL_PERSON_ORGANIZATION ( #186, #31, #90 ) ;
#64 = DIRECTION ( 'NONE',  ( 0.0000000000000000000, 1.000000000000000000, 0.0000000000000000000 ) ) ;
#65 = AXIS2_PLACEMENT_3D ( 'NONE', #17, #146, #3 ) ;
#66 = CC_DESIGN_DATE_AND_TIME_ASSIGNMENT ( #73, #140, ( #144 ) ) ;
#67 = PLANE ( 'NONE',  #37 ) ;
#68 = CIRCLE ( 'NONE', #165, 1.200000000000000178 ) ;
#69 = EDGE_CURVE ( 'NONE', #134, #134, #68, .T. ) ;
#70 = PERSON ( 'UNSPECIFIED', 'UNSPECIFIED', 'UNSPECIFIED', ('UNSPECIFIED'), ('UNSPECIFIED'), ('UNSPECIFIED') ) ;
#71 = PERSON_AND_ORGANIZATION_ROLE ( 'classification_officer' ) ;
#72 = APPROVAL_STATUS ( 'not_yet_approved' ) ;
#73 = DATE_AND_TIME ( #43, #108 ) ;
#74 = CALENDAR_DATE ( 2021, 25, 11 ) ;
#75 = VERTEX_POINT ( 'NONE', #15 ) ;
#76 = LOCAL_TIME ( 14, 42, 38.00000000000000000, #100 ) ;
#77 = MANIFOLD_SOLID_BREP ( 'Corps-Déplacer/Copier1[1]', #175 ) ;
#78 = MANIFOLD_SOLID_BREP ( 'Corps-Déplacer/Copier1[2]', #94 ) ;
#79 = EDGE_CURVE ( 'NONE', #75, #75, #129, .T. ) ;
#80 = AXIS2_PLACEMENT_3D ( 'NONE', #12, #60, #45 ) ;
#81 = ORGANIZATION ( 'UNSPECIFIED', 'UNSPECIFIED', '' ) ;
#82 = DIRECTION ( 'NONE',  ( 0.0000000000000000000, 1.000000000000000000, 0.0000000000000000000 ) ) ;
#83 = PRODUCT_DEFINITION ( 'UNKNOWN', '', #196, #85 ) ;
#84 =( NAMED_UNIT ( * ) PLANE_ANGLE_UNIT ( ) SI_UNIT ( $, .RADIAN. ) );
#85 = DESIGN_CONTEXT ( 'detailed design', #128, 'design' ) ;
#86 = APPLICATION_PROTOCOL_DEFINITION ( 'international standard', 'config_control_design', 1994, #128 ) ;
#87 = EDGE_LOOP ( 'NONE', ( #203 ) ) ;
#88 = AXIS2_PLACEMENT_3D ( 'NONE', #4, #35, #64 ) ;
#89 = ORIENTED_EDGE ( 'NONE', *, *, #79, .F. ) ;
#90 = APPROVAL_ROLE ( '' ) ;
#91 = CC_DESIGN_PERSON_AND_ORGANIZATION_ASSIGNMENT ( #24, #7, ( #83 ) ) ;
#92 = DIRECTION ( 'NONE',  ( -3.491481338843133355E-15, 1.224646799147353207E-16, -1.000000000000000000 ) ) ;
#93 = FACE_OUTER_BOUND ( 'NONE', #102, .T. ) ;
#94 = CLOSED_SHELL ( 'NONE', ( #118, #54, #136 ) ) ;
#95 = CARTESIAN_POINT ( 'NONE',  ( 1.326762908760390423E-13, 8.998558695971078593E-33, 38.00000000000000000 ) ) ;
#96 = PERSON_AND_ORGANIZATION ( #70, #81 ) ;
#97 = CALENDAR_DATE ( 2021, 25, 11 ) ;
#98 = APPROVAL_DATE_TIME ( #22, #20 ) ;
#99 = APPROVAL_ROLE ( '' ) ;
#100 = COORDINATED_UNIVERSAL_TIME_OFFSET ( 1, 0, .AHEAD. ) ;
#101 = CC_DESIGN_DATE_AND_TIME_ASSIGNMENT ( #150, #152, ( #83 ) ) ;
#102 = EDGE_LOOP ( 'NONE', ( #42 ) ) ;
#103 =( LENGTH_UNIT ( ) NAMED_UNIT ( * ) SI_UNIT ( .MILLI., .METRE. ) );
#104 = SECURITY_CLASSIFICATION_LEVEL ( 'unclassified' ) ;
#105 = EDGE_LOOP ( 'NONE', ( #188 ) ) ;
#106 = CARTESIAN_POINT ( 'NONE',  ( 1.326762908760390423E-13, -4.653657836759941941E-15, 38.00000000000000000 ) ) ;
#107 = DIRECTION ( 'NONE',  ( -3.491481338843133355E-15, 1.224646799147353207E-16, -1.000000000000000000 ) ) ;
#108 = LOCAL_TIME ( 14, 42, 38.00000000000000000, #8 ) ;
#109 = CC_DESIGN_PERSON_AND_ORGANIZATION_ASSIGNMENT ( #138, #59, ( #196 ) ) ;
#110 = CARTESIAN_POINT ( 'NONE',  ( 1.093175860520960845E-14, 1.499999999999995559, 3.130980103943999282 ) ) ;
#111 = DIRECTION ( 'NONE',  ( 3.491481338843133355E-15, -1.224646799147353207E-16, 1.000000000000000000 ) ) ;
#112 = APPLICATION_CONTEXT ( 'configuration controlled 3d designs of mechanical parts and assemblies' ) ;
#113 = PLANE ( 'NONE',  #28 ) ;
#114 = LOCAL_TIME ( 14, 42, 38.00000000000000000, #137 ) ;
#115 = CC_DESIGN_PERSON_AND_ORGANIZATION_ASSIGNMENT ( #201, #71, ( #144 ) ) ;
#116 = FACE_OUTER_BOUND ( 'NONE', #126, .T. ) ;
#117 = AXIS2_PLACEMENT_3D ( 'NONE', #194, #180, #23 ) ;
#118 = ADVANCED_FACE ( 'NONE', ( #116 ), #21, .F. ) ;
#119 = APPLICATION_PROTOCOL_DEFINITION ( 'international standard', 'config_control_design', 1994, #112 ) ;
#120 = PERSON_AND_ORGANIZATION ( #70, #81 ) ;
#121 = PERSON_AND_ORGANIZATION ( #70, #81 ) ;
#122 = CALENDAR_DATE ( 2021, 25, 11 ) ;
#123 = LOCAL_TIME ( 14, 42, 38.00000000000000000, #154 ) ;
#124 = APPROVAL ( #39, 'UNSPECIFIED' ) ;
#125 = CYLINDRICAL_SURFACE ( 'NONE', #65, 1.499999999999998002 ) ;
#126 = EDGE_LOOP ( 'NONE', ( #200 ) ) ;
#127 = ORIENTED_EDGE ( 'NONE', *, *, #36, .T. ) ;
#128 = APPLICATION_CONTEXT ( 'configuration controlled 3d designs of mechanical parts and assemblies' ) ;
#129 = CIRCLE ( 'NONE', #62, 1.500000000000000222 ) ;
#130 = DIRECTION ( 'NONE',  ( 3.491481338843133355E-15, -1.224646799147353207E-16, 1.000000000000000000 ) ) ;
#131 = VERTEX_POINT ( 'NONE', #142 ) ;
#132 = AXIS2_PLACEMENT_3D ( 'NONE', #139, #38, #82 ) ;
#133 = CC_DESIGN_PERSON_AND_ORGANIZATION_ASSIGNMENT ( #96, #41, ( #33 ) ) ;
#134 = VERTEX_POINT ( 'NONE', #48 ) ;
#135 = CARTESIAN_POINT ( 'NONE',  ( 1.093175860520960845E-14, -9.052307815213288824E-16, 3.130980103943999282 ) ) ;
#136 = ADVANCED_FACE ( 'NONE', ( #151 ), #67, .T. ) ;
#137 = COORDINATED_UNIVERSAL_TIME_OFFSET ( 1, 0, .AHEAD. ) ;
#138 = PERSON_AND_ORGANIZATION ( #70, #81 ) ;
#139 = CARTESIAN_POINT ( 'NONE',  ( 1.093175860520960845E-14, -3.834344762489066222E-16, 3.130980103943999282 ) ) ;
#140 = DATE_TIME_ROLE ( 'classification_date' ) ;
#141 = CARTESIAN_POINT ( 'NONE',  ( 1.326762908760390423E-13, -4.653657836759941941E-15, 38.00000000000000000 ) ) ;
#142 = CARTESIAN_POINT ( 'NONE',  ( 1.093175860520960845E-14, 1.499999999999995559, 3.130980103943999282 ) ) ;
#143 =( GEOMETRIC_REPRESENTATION_CONTEXT ( 3 ) GLOBAL_UNCERTAINTY_ASSIGNED_CONTEXT ( ( #14 ) ) GLOBAL_UNIT_ASSIGNED_CONTEXT ( ( #103, #84, #57 ) ) REPRESENTATION_CONTEXT ( 'NONE', 'WORKASPACE' ) );
#144 = SECURITY_CLASSIFICATION ( '', '', #104 ) ;
#145 = DIRECTION ( 'NONE',  ( 4.275831445896958607E-31, 1.000000000000000000, 1.224646799147353207E-16 ) ) ;
#146 = DIRECTION ( 'NONE',  ( -3.491481338843133355E-15, 1.224646799147353207E-16, -1.000000000000000000 ) ) ;
#147 = APPROVAL_PERSON_ORGANIZATION ( #121, #20, #185 ) ;
#148 = CC_DESIGN_APPROVAL ( #31, ( #144 ) ) ;
#149 = CIRCLE ( 'NONE', #132, 1.499999999999996003 ) ;
#150 = DATE_AND_TIME ( #122, #114 ) ;
#151 = FACE_OUTER_BOUND ( 'NONE', #61, .T. ) ;
#152 = DATE_TIME_ROLE ( 'creation_date' ) ;
#153 = EDGE_LOOP ( 'NONE', ( #27 ) ) ;
#154 = COORDINATED_UNIVERSAL_TIME_OFFSET ( 1, 0, .AHEAD. ) ;
#155 = EDGE_LOOP ( 'NONE', ( #9 ) ) ;
#156 = PERSON_AND_ORGANIZATION ( #70, #81 ) ;
#157 = PLANE ( 'NONE',  #80 ) ;
#158 = FACE_BOUND ( 'NONE', #87, .T. ) ;
#159 = ADVANCED_BREP_SHAPE_REPRESENTATION ( '961328', ( #77, #78, #6 ), #143 ) ;
#160 = AXIS2_PLACEMENT_3D ( 'NONE', #32, #130, #191 ) ;
#161 = CC_DESIGN_SECURITY_CLASSIFICATION ( #144, ( #196 ) ) ;
#162 = DIRECTION ( 'NONE',  ( 0.0000000000000000000, 1.000000000000000000, 0.0000000000000000000 ) ) ;
#163 = DIRECTION ( 'NONE',  ( 0.0000000000000000000, 1.000000000000000000, 0.0000000000000000000 ) ) ;
#164 = ADVANCED_FACE ( 'NONE', ( #93 ), #113, .F. ) ;
#165 = AXIS2_PLACEMENT_3D ( 'NONE', #106, #107, #162 ) ;
#166 = CC_DESIGN_APPROVAL ( #124, ( #196 ) ) ;
#167 = DIRECTION ( 'NONE',  ( -3.491481338843133355E-15, 1.224646799147353207E-16, -1.000000000000000000 ) ) ;
#168 = CONICAL_SURFACE ( 'NONE', #47, 1.200000000000000178, 0.7853981633974457255 ) ;
#169 = EDGE_LOOP ( 'NONE', ( #89 ) ) ;
#170 = EDGE_LOOP ( 'NONE', ( #184 ) ) ;
#171 = EDGE_CURVE ( 'NONE', #189, #189, #187, .T. ) ;
#172 = CALENDAR_DATE ( 2021, 25, 11 ) ;
#173 = FACE_OUTER_BOUND ( 'NONE', #169, .T. ) ;
#174 = EDGE_LOOP ( 'NONE', ( #127 ) ) ;
#175 = CLOSED_SHELL ( 'NONE', ( #13, #46, #16, #164 ) ) ;
#176 = CARTESIAN_POINT ( 'NONE',  ( -5.273726868693086102E-33, 1.849774380138123442E-34, -1.510455407572214492E-18 ) ) ;
#177 = CARTESIAN_POINT ( 'NONE',  ( 1.182959891489475848E-32, 0.04000000000000002165, 3.388131789017201356E-18 ) ) ;
#178 = CONICAL_SURFACE ( 'NONE', #160, 1.499999999999996003, 0.4363323129985759441 ) ;
#179 = EDGE_CURVE ( 'NONE', #131, #131, #183, .T. ) ;
#180 = DIRECTION ( 'NONE',  ( 3.491481338843133355E-15, -1.224646799147353207E-16, 1.000000000000000000 ) ) ;
#181 = APPROVAL_STATUS ( 'not_yet_approved' ) ;
#182 = FACE_OUTER_BOUND ( 'NONE', #155, .T. ) ;
#183 = CIRCLE ( 'NONE', #88, 1.499999999999996003 ) ;
#184 = ORIENTED_EDGE ( 'NONE', *, *, #179, .T. ) ;
#185 = APPROVAL_ROLE ( '' ) ;
#186 = PERSON_AND_ORGANIZATION ( #70, #81 ) ;
#187 = CIRCLE ( 'NONE', #2, 0.04000000000000002165 ) ;
#188 = ORIENTED_EDGE ( 'NONE', *, *, #36, .F. ) ;
#189 = VERTEX_POINT ( 'NONE', #177 ) ;
#190 = FACE_OUTER_BOUND ( 'NONE', #170, .T. ) ;
#191 = DIRECTION ( 'NONE',  ( 0.0000000000000000000, -1.000000000000000000, 0.0000000000000000000 ) ) ;
#192 = VERTEX_POINT ( 'NONE', #110 ) ;
#193 = APPROVAL_PERSON_ORGANIZATION ( #120, #124, #99 ) ;
#194 = CARTESIAN_POINT ( 'NONE',  ( -2.636863434346543051E-33, 9.248871900690617212E-35, -7.552277037861072461E-19 ) ) ;
#195 = DIRECTION ( 'NONE',  ( 0.0000000000000000000, 1.000000000000000000, 0.0000000000000000000 ) ) ;
#196 = PRODUCT_DEFINITION_FORMATION_WITH_SPECIFIED_SOURCE ( 'ANY', '', #33, .NOT_KNOWN. ) ;
#197 = SHAPE_DEFINITION_REPRESENTATION ( #1, #159 ) ;
#198 = PRODUCT_RELATED_PRODUCT_CATEGORY ( 'detail', '', ( #33 ) ) ;
#199 = APPROVAL_DATE_TIME ( #51, #31 ) ;
#200 = ORIENTED_EDGE ( 'NONE', *, *, #171, .T. ) ;
#201 = PERSON_AND_ORGANIZATION ( #70, #81 ) ;
#202 = DIRECTION ( 'NONE',  ( 1.000000000000000000, 0.0000000000000000000, 0.0000000000000000000 ) ) ;
#203 = ORIENTED_EDGE ( 'NONE', *, *, #69, .T. ) ;
ENDSEC;
END-ISO-10303-21;
