ISO-10303-21;
HEADER;
FILE_DESCRIPTION (( 'STEP AP203' ),
    '1' );
FILE_NAME ('961327.step',
    '2021-11-25T13:47:05',
    ( '' ),
    ( '' ),
    'SwSTEP 2.0',
    'SolidWorks 2019',
    '' );
FILE_SCHEMA (( 'CONFIG_CONTROL_DESIGN' ));
ENDSEC;

DATA;
#1 = APPROVAL_PERSON_ORGANIZATION ( #129, #168, #153 ) ;
#2 = PERSON_AND_ORGANIZATION ( #65, #141 ) ;
#3 = VERTEX_POINT ( 'NONE', #78 ) ;
#4 = CARTESIAN_POINT ( 'NONE',  ( 0.0000000000000000000, 0.0000000000000000000, 0.0000000000000000000 ) ) ;
#5 =( NAMED_UNIT ( * ) PLANE_ANGLE_UNIT ( ) SI_UNIT ( $, .RADIAN. ) );
#6 = DIRECTION ( 'NONE',  ( -3.491481338843133355E-15, 1.224646799147353207E-16, -1.000000000000000000 ) ) ;
#7 = ORIENTED_EDGE ( 'NONE', *, *, #171, .T. ) ;
#8 = PERSON_AND_ORGANIZATION_ROLE ( 'creator' ) ;
#9 = APPROVAL_PERSON_ORGANIZATION ( #2, #159, #107 ) ;
#10 = AXIS2_PLACEMENT_3D ( 'NONE', #109, #185, #152 ) ;
#11 = ORIENTED_EDGE ( 'NONE', *, *, #194, .F. ) ;
#12 = DIRECTION ( 'NONE',  ( -4.275831445896958607E-31, -1.000000000000000000, -1.224646799147353207E-16 ) ) ;
#13 = LOCAL_TIME ( 14, 47, 5.000000000000000000, #73 ) ;
#14 = DATE_TIME_ROLE ( 'creation_date' ) ;
#15 = AXIS2_PLACEMENT_3D ( 'NONE', #123, #89, #66 ) ;
#16 = EDGE_LOOP ( 'NONE', ( #62 ) ) ;
#17 = FACE_OUTER_BOUND ( 'NONE', #94, .T. ) ;
#18 = DATE_TIME_ROLE ( 'classification_date' ) ;
#19 = AXIS2_PLACEMENT_3D ( 'NONE', #133, #199, #29 ) ;
#20 = CC_DESIGN_APPROVAL ( #168, ( #60 ) ) ;
#21 = DIRECTION ( 'NONE',  ( 3.491481338843133355E-15, -1.224646799147353207E-16, 1.000000000000000000 ) ) ;
#22 = PERSON_AND_ORGANIZATION_ROLE ( 'design_supplier' ) ;
#23 = CC_DESIGN_APPROVAL ( #139, ( #120 ) ) ;
#24 = CC_DESIGN_PERSON_AND_ORGANIZATION_ASSIGNMENT ( #157, #8, ( #60 ) ) ;
#25 = COORDINATED_UNIVERSAL_TIME_OFFSET ( 1, 0, .AHEAD. ) ;
#26 = CARTESIAN_POINT ( 'NONE',  ( 1.104407119361929560E-14, 1.499999999999995559, 3.163147707751643445 ) ) ;
#27 = CARTESIAN_POINT ( 'NONE',  ( 1.104407119361929560E-14, 1.499999999999995559, 3.163147707751643445 ) ) ;
#28 = APPLICATION_PROTOCOL_DEFINITION ( 'international standard', 'config_control_design', 1994, #38 ) ;
#29 = DIRECTION ( 'NONE',  ( 0.0000000000000000000, 1.000000000000000000, 0.0000000000000000000 ) ) ;
#30 = ORIENTED_EDGE ( 'NONE', *, *, #194, .T. ) ;
#31 = SHAPE_DEFINITION_REPRESENTATION ( #176, #175 ) ;
#32 = APPLICATION_CONTEXT ( 'configuration controlled 3d designs of mechanical parts and assemblies' ) ;
#33 = CIRCLE ( 'NONE', #64, 1.500000000000000222 ) ;
#34 = EDGE_LOOP ( 'NONE', ( #49 ) ) ;
#35 = SECURITY_CLASSIFICATION_LEVEL ( 'unclassified' ) ;
#36 = FACE_OUTER_BOUND ( 'NONE', #142, .T. ) ;
#37 = PERSON_AND_ORGANIZATION ( #65, #141 ) ;
#38 = APPLICATION_CONTEXT ( 'configuration controlled 3d designs of mechanical parts and assemblies' ) ;
#39 = PERSON_AND_ORGANIZATION ( #65, #141 ) ;
#40 = DIRECTION ( 'NONE',  ( 4.275831445896958607E-31, 1.000000000000000000, 1.224646799147353207E-16 ) ) ;
#41 = LOCAL_TIME ( 14, 47, 5.000000000000000000, #61 ) ;
#42 = CIRCLE ( 'NONE', #101, 1.200000000000000178 ) ;
#43 = CC_DESIGN_DATE_AND_TIME_ASSIGNMENT ( #158, #18, ( #120 ) ) ;
#44 = APPROVAL_STATUS ( 'not_yet_approved' ) ;
#45 = VERTEX_POINT ( 'NONE', #195 ) ;
#46 = DATE_AND_TIME ( #135, #146 ) ;
#47 = EDGE_LOOP ( 'NONE', ( #7 ) ) ;
#48 = AXIS2_PLACEMENT_3D ( 'NONE', #186, #177, #67 ) ;
#49 = ORIENTED_EDGE ( 'NONE', *, *, #171, .F. ) ;
#50 = COORDINATED_UNIVERSAL_TIME_OFFSET ( 1, 0, .AHEAD. ) ;
#51 = CARTESIAN_POINT ( 'NONE',  ( 1.326762908760390423E-13, -4.653657836759941941E-15, 38.00000000000000000 ) ) ;
#52 = PLANE ( 'NONE',  #76 ) ;
#53 = FACE_BOUND ( 'NONE', #156, .T. ) ;
#54 = DIRECTION ( 'NONE',  ( 0.0000000000000000000, 1.000000000000000000, 0.0000000000000000000 ) ) ;
#55 = APPROVAL_STATUS ( 'not_yet_approved' ) ;
#56 = EDGE_CURVE ( 'NONE', #170, #170, #167, .T. ) ;
#57 = AXIS2_PLACEMENT_3D ( 'NONE', #110, #58, #198 ) ;
#58 = DIRECTION ( 'NONE',  ( 0.0000000000000000000, 0.0000000000000000000, 1.000000000000000000 ) ) ;
#59 = DIRECTION ( 'NONE',  ( -3.491481338843133355E-15, 1.224646799147353207E-16, -1.000000000000000000 ) ) ;
#60 = PRODUCT_DEFINITION ( 'UNKNOWN', '', #196, #91 ) ;
#61 = COORDINATED_UNIVERSAL_TIME_OFFSET ( 1, 0, .AHEAD. ) ;
#62 = ORIENTED_EDGE ( 'NONE', *, *, #192, .F. ) ;
#63 = PERSON_AND_ORGANIZATION ( #65, #141 ) ;
#64 = AXIS2_PLACEMENT_3D ( 'NONE', #147, #6, #54 ) ;
#65 = PERSON ( 'UNSPECIFIED', 'UNSPECIFIED', 'UNSPECIFIED', ('UNSPECIFIED'), ('UNSPECIFIED'), ('UNSPECIFIED') ) ;
#66 = DIRECTION ( 'NONE',  ( -4.275831445896958607E-31, -1.000000000000000000, -1.224646799147353207E-16 ) ) ;
#67 = DIRECTION ( 'NONE',  ( 0.0000000000000000000, 1.000000000000000000, 0.0000000000000000000 ) ) ;
#68 = CALENDAR_DATE ( 2021, 25, 11 ) ;
#69 = EDGE_LOOP ( 'NONE', ( #117 ) ) ;
#70 = DIRECTION ( 'NONE',  ( 3.491481338843133355E-15, -1.224646799147353207E-16, 1.000000000000000000 ) ) ;
#71 =( GEOMETRIC_REPRESENTATION_CONTEXT ( 3 ) GLOBAL_UNCERTAINTY_ASSIGNED_CONTEXT ( ( #184 ) ) GLOBAL_UNIT_ASSIGNED_CONTEXT ( ( #150, #5, #127 ) ) REPRESENTATION_CONTEXT ( 'NONE', 'WORKASPACE' ) );
#72 = EDGE_LOOP ( 'NONE', ( #30 ) ) ;
#73 = COORDINATED_UNIVERSAL_TIME_OFFSET ( 1, 0, .AHEAD. ) ;
#74 = CARTESIAN_POINT ( 'NONE',  ( 1.326762908760390423E-13, 8.998558695971078593E-33, 38.00000000000000000 ) ) ;
#75 = PLANE ( 'NONE',  #15 ) ;
#76 = AXIS2_PLACEMENT_3D ( 'NONE', #193, #21, #12 ) ;
#77 = DIRECTION ( 'NONE',  ( 4.275831445896958607E-31, 1.000000000000000000, 1.224646799147353207E-16 ) ) ;
#78 = CARTESIAN_POINT ( 'NONE',  ( -1.182959891489475711E-32, 0.02500000000000024772, -3.388131789017200971E-18 ) ) ;
#79 = CONICAL_SURFACE ( 'NONE', #201, 1.499999999999996003, 0.4363323129985758331 ) ;
#80 = PERSON_AND_ORGANIZATION ( #65, #141 ) ;
#81 = ORIENTED_EDGE ( 'NONE', *, *, #149, .T. ) ;
#82 = APPROVAL_DATE_TIME ( #46, #139 ) ;
#83 = CC_DESIGN_PERSON_AND_ORGANIZATION_ASSIGNMENT ( #39, #22, ( #196 ) ) ;
#84 = CLOSED_SHELL ( 'NONE', ( #162, #182, #96 ) ) ;
#85 = FACE_OUTER_BOUND ( 'NONE', #34, .T. ) ;
#86 = APPROVAL_DATE_TIME ( #140, #159 ) ;
#87 = CC_DESIGN_SECURITY_CLASSIFICATION ( #120, ( #196 ) ) ;
#88 = ADVANCED_FACE ( 'NONE', ( #137 ), #52, .F. ) ;
#89 = DIRECTION ( 'NONE',  ( 3.491481338843133355E-15, -1.224646799147353207E-16, 1.000000000000000000 ) ) ;
#90 = APPROVAL_DATE_TIME ( #183, #168 ) ;
#91 = DESIGN_CONTEXT ( 'detailed design', #32, 'design' ) ;
#92 = LOCAL_TIME ( 14, 47, 5.000000000000000000, #25 ) ;
#93 = DIRECTION ( 'NONE',  ( -3.491481338843133355E-15, 1.224646799147353207E-16, -1.000000000000000000 ) ) ;
#94 = EDGE_LOOP ( 'NONE', ( #81 ) ) ;
#95 = CYLINDRICAL_SURFACE ( 'NONE', #103, 1.499999999999998002 ) ;
#96 = ADVANCED_FACE ( 'NONE', ( #85 ), #75, .T. ) ;
#97 = APPROVAL_PERSON_ORGANIZATION ( #99, #139, #143 ) ;
#98 = PERSON_AND_ORGANIZATION_ROLE ( 'classification_officer' ) ;
#99 = PERSON_AND_ORGANIZATION ( #65, #141 ) ;
#100 = PLANE ( 'NONE',  #200 ) ;
#101 = AXIS2_PLACEMENT_3D ( 'NONE', #145, #122, #108 ) ;
#102 = DIRECTION ( 'NONE',  ( -3.491481338843133355E-15, 1.224646799147353207E-16, -1.000000000000000000 ) ) ;
#103 = AXIS2_PLACEMENT_3D ( 'NONE', #4, #59, #191 ) ;
#104 = CC_DESIGN_PERSON_AND_ORGANIZATION_ASSIGNMENT ( #63, #98, ( #120 ) ) ;
#105 = DATE_AND_TIME ( #126, #92 ) ;
#106 = AXIS2_PLACEMENT_3D ( 'NONE', #112, #93, #77 ) ;
#107 = APPROVAL_ROLE ( '' ) ;
#108 = DIRECTION ( 'NONE',  ( 0.0000000000000000000, 1.000000000000000000, 0.0000000000000000000 ) ) ;
#109 = CARTESIAN_POINT ( 'NONE',  ( -1.125958876481862964E-32, 3.949332103581996010E-34, -3.224874393442807286E-18 ) ) ;
#110 = CARTESIAN_POINT ( 'NONE',  ( 0.0000000000000000000, 0.0000000000000000000, 0.0000000000000000000 ) ) ;
#111 = CONICAL_SURFACE ( 'NONE', #203, 1.200000000000000178, 0.7853981633974457255 ) ;
#112 = CARTESIAN_POINT ( 'NONE',  ( -2.251917752963725927E-32, 7.898664207163992019E-34, -6.449748786885614573E-18 ) ) ;
#113 = ORIENTED_EDGE ( 'NONE', *, *, #192, .T. ) ;
#114 = CALENDAR_DATE ( 2021, 25, 11 ) ;
#115 = CC_DESIGN_PERSON_AND_ORGANIZATION_ASSIGNMENT ( #37, #161, ( #196 ) ) ;
#116 = CARTESIAN_POINT ( 'NONE',  ( 1.104407119361929560E-14, -3.873738715528338058E-16, 3.163147707751643445 ) ) ;
#117 = ORIENTED_EDGE ( 'NONE', *, *, #149, .F. ) ;
#118 = LOCAL_TIME ( 14, 47, 5.000000000000000000, #178 ) ;
#119 = FACE_OUTER_BOUND ( 'NONE', #16, .T. ) ;
#120 = SECURITY_CLASSIFICATION ( '', '', #35 ) ;
#121 = CC_DESIGN_PERSON_AND_ORGANIZATION_ASSIGNMENT ( #80, #130, ( #138 ) ) ;
#122 = DIRECTION ( 'NONE',  ( -3.491481338843133355E-15, 1.224646799147353207E-16, -1.000000000000000000 ) ) ;
#123 = CARTESIAN_POINT ( 'NONE',  ( 1.104407119361929560E-14, 1.124819836996389648E-32, 3.163147707751643445 ) ) ;
#124 = ADVANCED_FACE ( 'NONE', ( #36, #17 ), #95, .T. ) ;
#125 = FACE_OUTER_BOUND ( 'NONE', #72, .T. ) ;
#126 = CALENDAR_DATE ( 2021, 25, 11 ) ;
#127 =( NAMED_UNIT ( * ) SI_UNIT ( $, .STERADIAN. ) SOLID_ANGLE_UNIT ( ) );
#128 = CC_DESIGN_DATE_AND_TIME_ASSIGNMENT ( #105, #14, ( #60 ) ) ;
#129 = PERSON_AND_ORGANIZATION ( #65, #141 ) ;
#130 = PERSON_AND_ORGANIZATION_ROLE ( 'design_owner' ) ;
#131 = CALENDAR_DATE ( 2021, 25, 11 ) ;
#132 = ADVANCED_FACE ( 'NONE', ( #164, #144 ), #111, .T. ) ;
#133 = CARTESIAN_POINT ( 'NONE',  ( 1.104407119361929560E-14, -3.873738715528338058E-16, 3.163147707751643445 ) ) ;
#134 = ORIENTED_EDGE ( 'NONE', *, *, #56, .T. ) ;
#135 = CALENDAR_DATE ( 2021, 25, 11 ) ;
#136 = PLANE ( 'NONE',  #10 ) ;
#137 = FACE_OUTER_BOUND ( 'NONE', #160, .T. ) ;
#138 = PRODUCT ( '961327', '961327', '', ( #151 ) ) ;
#139 = APPROVAL ( #187, 'UNSPECIFIED' ) ;
#140 = DATE_AND_TIME ( #114, #118 ) ;
#141 = ORGANIZATION ( 'UNSPECIFIED', 'UNSPECIFIED', '' ) ;
#142 = EDGE_LOOP ( 'NONE', ( #188 ) ) ;
#143 = APPROVAL_ROLE ( '' ) ;
#144 = FACE_BOUND ( 'NONE', #173, .T. ) ;
#145 = CARTESIAN_POINT ( 'NONE',  ( 1.326762908760390423E-13, -4.653657836759941941E-15, 38.00000000000000000 ) ) ;
#146 = LOCAL_TIME ( 14, 47, 5.000000000000000000, #50 ) ;
#147 = CARTESIAN_POINT ( 'NONE',  ( 1.316288464743861212E-13, -4.616918432785521081E-15, 37.69999999999999574 ) ) ;
#148 = CARTESIAN_POINT ( 'NONE',  ( 1.326762908760390423E-13, 1.199999999999995515, 38.00000000000000000 ) ) ;
#149 = EDGE_CURVE ( 'NONE', #45, #45, #33, .T. ) ;
#150 =( LENGTH_UNIT ( ) NAMED_UNIT ( * ) SI_UNIT ( .MILLI., .METRE. ) );
#151 = MECHANICAL_CONTEXT ( 'NONE', #38, 'mechanical' ) ;
#152 = DIRECTION ( 'NONE',  ( -4.275831445896958607E-31, -1.000000000000000000, -1.224646799147353207E-16 ) ) ;
#153 = APPROVAL_ROLE ( '' ) ;
#154 = MANIFOLD_SOLID_BREP ( 'Corps-Déplacer/Copier1[2]', #84 ) ;
#155 = DIRECTION ( 'NONE',  ( 0.0000000000000000000, 1.000000000000000000, 0.0000000000000000000 ) ) ;
#156 = EDGE_LOOP ( 'NONE', ( #11 ) ) ;
#157 = PERSON_AND_ORGANIZATION ( #65, #141 ) ;
#158 = DATE_AND_TIME ( #68, #13 ) ;
#159 = APPROVAL ( #55, 'UNSPECIFIED' ) ;
#160 = EDGE_LOOP ( 'NONE', ( #134 ) ) ;
#161 = PERSON_AND_ORGANIZATION_ROLE ( 'creator' ) ;
#162 = ADVANCED_FACE ( 'NONE', ( #125 ), #136, .F. ) ;
#163 = CLOSED_SHELL ( 'NONE', ( #88, #124, #132, #189 ) ) ;
#164 = FACE_OUTER_BOUND ( 'NONE', #69, .T. ) ;
#165 = MANIFOLD_SOLID_BREP ( 'Corps-Déplacer/Copier1[1]', #163 ) ;
#166 = PRODUCT_RELATED_PRODUCT_CATEGORY ( 'detail', '', ( #138 ) ) ;
#167 = CIRCLE ( 'NONE', #48, 1.499999999999996003 ) ;
#168 = APPROVAL ( #44, 'UNSPECIFIED' ) ;
#169 = VERTEX_POINT ( 'NONE', #27 ) ;
#170 = VERTEX_POINT ( 'NONE', #26 ) ;
#171 = EDGE_CURVE ( 'NONE', #169, #169, #180, .T. ) ;
#172 = CIRCLE ( 'NONE', #106, 0.02500000000000024772 ) ;
#173 = EDGE_LOOP ( 'NONE', ( #113 ) ) ;
#174 = VERTEX_POINT ( 'NONE', #148 ) ;
#175 = ADVANCED_BREP_SHAPE_REPRESENTATION ( '961327', ( #165, #154, #57 ), #71 ) ;
#176 = PRODUCT_DEFINITION_SHAPE ( 'NONE', 'NONE',  #60 ) ;
#177 = DIRECTION ( 'NONE',  ( -3.491481338843133355E-15, 1.224646799147353207E-16, -1.000000000000000000 ) ) ;
#178 = COORDINATED_UNIVERSAL_TIME_OFFSET ( 1, 0, .AHEAD. ) ;
#179 = FACE_OUTER_BOUND ( 'NONE', #47, .T. ) ;
#180 = CIRCLE ( 'NONE', #19, 1.499999999999996003 ) ;
#181 = CC_DESIGN_APPROVAL ( #159, ( #196 ) ) ;
#182 = ADVANCED_FACE ( 'NONE', ( #53, #179 ), #79, .T. ) ;
#183 = DATE_AND_TIME ( #131, #41 ) ;
#184 = UNCERTAINTY_MEASURE_WITH_UNIT (LENGTH_MEASURE( 1.000000000000000082E-05 ), #150, 'distance_accuracy_value', 'NONE');
#185 = DIRECTION ( 'NONE',  ( 3.491481338843133355E-15, -1.224646799147353207E-16, 1.000000000000000000 ) ) ;
#186 = CARTESIAN_POINT ( 'NONE',  ( 1.104407119361929560E-14, -3.873738715528338058E-16, 3.163147707751643445 ) ) ;
#187 = APPROVAL_STATUS ( 'not_yet_approved' ) ;
#188 = ORIENTED_EDGE ( 'NONE', *, *, #56, .F. ) ;
#189 = ADVANCED_FACE ( 'NONE', ( #119 ), #100, .F. ) ;
#190 = DIRECTION ( 'NONE',  ( 0.0000000000000000000, -1.000000000000000000, 0.0000000000000000000 ) ) ;
#191 = DIRECTION ( 'NONE',  ( 4.275831445896959482E-31, 1.000000000000000000, 1.224646799147353207E-16 ) ) ;
#192 = EDGE_CURVE ( 'NONE', #174, #174, #42, .T. ) ;
#193 = CARTESIAN_POINT ( 'NONE',  ( 1.104407119361929560E-14, 1.124819836996389648E-32, 3.163147707751643445 ) ) ;
#194 = EDGE_CURVE ( 'NONE', #3, #3, #172, .T. ) ;
#195 = CARTESIAN_POINT ( 'NONE',  ( 1.316288464743861212E-13, 1.499999999999995781, 37.69999999999999574 ) ) ;
#196 = PRODUCT_DEFINITION_FORMATION_WITH_SPECIFIED_SOURCE ( 'ANY', '', #138, .NOT_KNOWN. ) ;
#197 = APPLICATION_PROTOCOL_DEFINITION ( 'international standard', 'config_control_design', 1994, #32 ) ;
#198 = DIRECTION ( 'NONE',  ( 1.000000000000000000, 0.0000000000000000000, 0.0000000000000000000 ) ) ;
#199 = DIRECTION ( 'NONE',  ( -3.491481338843133355E-15, 1.224646799147353207E-16, -1.000000000000000000 ) ) ;
#200 = AXIS2_PLACEMENT_3D ( 'NONE', #74, #202, #40 ) ;
#201 = AXIS2_PLACEMENT_3D ( 'NONE', #116, #70, #190 ) ;
#202 = DIRECTION ( 'NONE',  ( -3.491481338843133355E-15, 1.224646799147353207E-16, -1.000000000000000000 ) ) ;
#203 = AXIS2_PLACEMENT_3D ( 'NONE', #51, #102, #155 ) ;
ENDSEC;
END-ISO-10303-21;
