ISO-10303-21;
HEADER;
FILE_DESCRIPTION (( 'STEP AP203' ),
    '1' );
FILE_NAME ('961326.step',
    '2021-11-25T13:42:37',
    ( '' ),
    ( '' ),
    'SwSTEP 2.0',
    'SolidWorks 2019',
    '' );
FILE_SCHEMA (( 'CONFIG_CONTROL_DESIGN' ));
ENDSEC;

DATA;
#1 = CARTESIAN_POINT ( 'NONE',  ( 1.104407119361929560E-14, 1.124819836996389648E-32, 3.163147707751643445 ) ) ;
#2 = AXIS2_PLACEMENT_3D ( 'NONE', #161, #9, #102 ) ;
#3 = LOCAL_TIME ( 14, 42, 37.00000000000000000, #61 ) ;
#4 = COORDINATED_UNIVERSAL_TIME_OFFSET ( 1, 0, .AHEAD. ) ;
#5 = FACE_OUTER_BOUND ( 'NONE', #31, .T. ) ;
#6 = MANIFOLD_SOLID_BREP ( 'Corps-Déplacer/Copier1[1]', #49 ) ;
#7 = EDGE_CURVE ( 'NONE', #8, #8, #112, .T. ) ;
#8 = VERTEX_POINT ( 'NONE', #37 ) ;
#9 = DIRECTION ( 'NONE',  ( -3.491481338843133355E-15, 1.224646799147353207E-16, -1.000000000000000000 ) ) ;
#10 = DIRECTION ( 'NONE',  ( -3.491481338843133355E-15, 1.224646799147353207E-16, -1.000000000000000000 ) ) ;
#11 = EDGE_LOOP ( 'NONE', ( #138 ) ) ;
#12 = PERSON_AND_ORGANIZATION ( #171, #183 ) ;
#13 = DATE_AND_TIME ( #57, #25 ) ;
#14 = CC_DESIGN_PERSON_AND_ORGANIZATION_ASSIGNMENT ( #188, #47, ( #50 ) ) ;
#15 = CALENDAR_DATE ( 2021, 25, 11 ) ;
#16 = APPROVAL_ROLE ( '' ) ;
#17 = ADVANCED_FACE ( 'NONE', ( #200 ), #184, .T. ) ;
#18 = DIRECTION ( 'NONE',  ( -4.275831445896958607E-31, -1.000000000000000000, -1.224646799147353207E-16 ) ) ;
#19 = AXIS2_PLACEMENT_3D ( 'NONE', #28, #10, #74 ) ;
#20 = DIRECTION ( 'NONE',  ( 4.275831445896959482E-31, 1.000000000000000000, 1.224646799147353207E-16 ) ) ;
#21 = AXIS2_PLACEMENT_3D ( 'NONE', #24, #145, #144 ) ;
#22 = DIRECTION ( 'NONE',  ( -3.491481338843133355E-15, 1.224646799147353207E-16, -1.000000000000000000 ) ) ;
#23 = EDGE_CURVE ( 'NONE', #78, #78, #107, .T. ) ;
#24 = CARTESIAN_POINT ( 'NONE',  ( -2.251917752963725927E-32, 7.898664207163992019E-34, -6.449748786885614573E-18 ) ) ;
#25 = LOCAL_TIME ( 14, 42, 37.00000000000000000, #106 ) ;
#26 = ORIENTED_EDGE ( 'NONE', *, *, #23, .T. ) ;
#27 = DATE_AND_TIME ( #15, #172 ) ;
#28 = CARTESIAN_POINT ( 'NONE',  ( 1.316288464743861212E-13, -4.616918432785521081E-15, 37.69999999999999574 ) ) ;
#29 = PERSON_AND_ORGANIZATION_ROLE ( 'design_owner' ) ;
#30 = PERSON_AND_ORGANIZATION_ROLE ( 'creator' ) ;
#31 = EDGE_LOOP ( 'NONE', ( #108 ) ) ;
#32 = DIRECTION ( 'NONE',  ( 0.0000000000000000000, 0.0000000000000000000, 1.000000000000000000 ) ) ;
#33 = COORDINATED_UNIVERSAL_TIME_OFFSET ( 1, 0, .AHEAD. ) ;
#34 = AXIS2_PLACEMENT_3D ( 'NONE', #72, #22, #98 ) ;
#35 = CC_DESIGN_PERSON_AND_ORGANIZATION_ASSIGNMENT ( #186, #76, ( #66 ) ) ;
#36 = FACE_OUTER_BOUND ( 'NONE', #139, .T. ) ;
#37 = CARTESIAN_POINT ( 'NONE',  ( 1.326762908760390423E-13, 1.199999999999995515, 38.00000000000000000 ) ) ;
#38 = ADVANCED_FACE ( 'NONE', ( #115 ), #178, .F. ) ;
#39 = PERSON_AND_ORGANIZATION ( #171, #183 ) ;
#40 = EDGE_LOOP ( 'NONE', ( #163 ) ) ;
#41 = SHAPE_DEFINITION_REPRESENTATION ( #88, #54 ) ;
#42 = APPROVAL ( #43, 'UNSPECIFIED' ) ;
#43 = APPROVAL_STATUS ( 'not_yet_approved' ) ;
#44 = PERSON_AND_ORGANIZATION ( #171, #183 ) ;
#45 = DATE_AND_TIME ( #151, #93 ) ;
#46 = APPROVAL ( #196, 'UNSPECIFIED' ) ;
#47 = PERSON_AND_ORGANIZATION_ROLE ( 'classification_officer' ) ;
#48 = PLANE ( 'NONE',  #153 ) ;
#49 = CLOSED_SHELL ( 'NONE', ( #130, #191, #89, #38 ) ) ;
#50 = SECURITY_CLASSIFICATION ( '', '', #125 ) ;
#51 = CALENDAR_DATE ( 2021, 25, 11 ) ;
#52 = VERTEX_POINT ( 'NONE', #193 ) ;
#53 = APPROVAL_ROLE ( '' ) ;
#54 = ADVANCED_BREP_SHAPE_REPRESENTATION ( '961326', ( #6, #140, #133 ), #126 ) ;
#55 = PRODUCT_RELATED_PRODUCT_CATEGORY ( 'detail', '', ( #156 ) ) ;
#56 = APPROVAL_PERSON_ORGANIZATION ( #82, #70, #16 ) ;
#57 = CALENDAR_DATE ( 2021, 25, 11 ) ;
#58 = DIRECTION ( 'NONE',  ( 3.491481338843133355E-15, -1.224646799147353207E-16, 1.000000000000000000 ) ) ;
#59 = CARTESIAN_POINT ( 'NONE',  ( 0.0000000000000000000, 0.0000000000000000000, 0.0000000000000000000 ) ) ;
#60 = CONICAL_SURFACE ( 'NONE', #116, 1.499999999999996003, 0.4363323129985758331 ) ;
#61 = COORDINATED_UNIVERSAL_TIME_OFFSET ( 1, 0, .AHEAD. ) ;
#62 = EDGE_LOOP ( 'NONE', ( #63 ) ) ;
#63 = ORIENTED_EDGE ( 'NONE', *, *, #7, .F. ) ;
#64 = APPROVAL_DATE_TIME ( #13, #70 ) ;
#65 = DIRECTION ( 'NONE',  ( 3.491481338843133355E-15, -1.224646799147353207E-16, 1.000000000000000000 ) ) ;
#66 = PRODUCT_DEFINITION_FORMATION_WITH_SPECIFIED_SOURCE ( 'ANY', '', #156, .NOT_KNOWN. ) ;
#67 = DATE_AND_TIME ( #51, #194 ) ;
#68 = DIRECTION ( 'NONE',  ( 0.0000000000000000000, -1.000000000000000000, 0.0000000000000000000 ) ) ;
#69 = CARTESIAN_POINT ( 'NONE',  ( -1.182959891489475711E-32, 0.02500000000000024772, -3.388131789017200971E-18 ) ) ;
#70 = APPROVAL ( #168, 'UNSPECIFIED' ) ;
#71 = AXIS2_PLACEMENT_3D ( 'NONE', #131, #143, #20 ) ;
#72 = CARTESIAN_POINT ( 'NONE',  ( 1.326762908760390423E-13, 8.998558695971078593E-33, 38.00000000000000000 ) ) ;
#73 = CC_DESIGN_PERSON_AND_ORGANIZATION_ASSIGNMENT ( #90, #30, ( #114 ) ) ;
#74 = DIRECTION ( 'NONE',  ( 0.0000000000000000000, 1.000000000000000000, 0.0000000000000000000 ) ) ;
#75 = CIRCLE ( 'NONE', #2, 1.499999999999996003 ) ;
#76 = PERSON_AND_ORGANIZATION_ROLE ( 'design_supplier' ) ;
#77 = AXIS2_PLACEMENT_3D ( 'NONE', #136, #147, #182 ) ;
#78 = VERTEX_POINT ( 'NONE', #192 ) ;
#79 = VERTEX_POINT ( 'NONE', #155 ) ;
#80 = CC_DESIGN_PERSON_AND_ORGANIZATION_ASSIGNMENT ( #44, #29, ( #156 ) ) ;
#81 = DESIGN_CONTEXT ( 'detailed design', #99, 'design' ) ;
#82 = PERSON_AND_ORGANIZATION ( #171, #183 ) ;
#83 = EDGE_LOOP ( 'NONE', ( #149 ) ) ;
#84 = CC_DESIGN_SECURITY_CLASSIFICATION ( #50, ( #66 ) ) ;
#85 = CONICAL_SURFACE ( 'NONE', #162, 1.200000000000000178, 0.7853981633974457255 ) ;
#86 = ORIENTED_EDGE ( 'NONE', *, *, #104, .T. ) ;
#87 = APPROVAL_ROLE ( '' ) ;
#88 = PRODUCT_DEFINITION_SHAPE ( 'NONE', 'NONE',  #114 ) ;
#89 = ADVANCED_FACE ( 'NONE', ( #118, #180 ), #85, .T. ) ;
#90 = PERSON_AND_ORGANIZATION ( #171, #183 ) ;
#91 = CARTESIAN_POINT ( 'NONE',  ( 1.104407119361929560E-14, -3.873738715528338058E-16, 3.163147707751643445 ) ) ;
#92 = FACE_BOUND ( 'NONE', #105, .T. ) ;
#93 = LOCAL_TIME ( 14, 42, 37.00000000000000000, #135 ) ;
#94 = FACE_OUTER_BOUND ( 'NONE', #103, .T. ) ;
#95 = DIRECTION ( 'NONE',  ( 3.491481338843133355E-15, -1.224646799147353207E-16, 1.000000000000000000 ) ) ;
#96 = APPLICATION_PROTOCOL_DEFINITION ( 'international standard', 'config_control_design', 1994, #146 ) ;
#97 = AXIS2_PLACEMENT_3D ( 'NONE', #170, #158, #174 ) ;
#98 = DIRECTION ( 'NONE',  ( 4.275831445896958607E-31, 1.000000000000000000, 1.224646799147353207E-16 ) ) ;
#99 = APPLICATION_CONTEXT ( 'configuration controlled 3d designs of mechanical parts and assemblies' ) ;
#100 = EDGE_CURVE ( 'NONE', #128, #128, #142, .T. ) ;
#101 = APPROVAL_DATE_TIME ( #67, #46 ) ;
#102 = DIRECTION ( 'NONE',  ( 0.0000000000000000000, 1.000000000000000000, 0.0000000000000000000 ) ) ;
#103 = EDGE_LOOP ( 'NONE', ( #26 ) ) ;
#104 = EDGE_CURVE ( 'NONE', #79, #79, #75, .T. ) ;
#105 = EDGE_LOOP ( 'NONE', ( #201 ) ) ;
#106 = COORDINATED_UNIVERSAL_TIME_OFFSET ( 1, 0, .AHEAD. ) ;
#107 = CIRCLE ( 'NONE', #19, 1.500000000000000222 ) ;
#108 = ORIENTED_EDGE ( 'NONE', *, *, #165, .T. ) ;
#109 = DIRECTION ( 'NONE',  ( -4.275831445896958607E-31, -1.000000000000000000, -1.224646799147353207E-16 ) ) ;
#110 =( NAMED_UNIT ( * ) SI_UNIT ( $, .STERADIAN. ) SOLID_ANGLE_UNIT ( ) );
#111 =( LENGTH_UNIT ( ) NAMED_UNIT ( * ) SI_UNIT ( .MILLI., .METRE. ) );
#112 = CIRCLE ( 'NONE', #77, 1.200000000000000178 ) ;
#113 = CC_DESIGN_APPROVAL ( #42, ( #50 ) ) ;
#114 = PRODUCT_DEFINITION ( 'UNKNOWN', '', #66, #81 ) ;
#115 = FACE_OUTER_BOUND ( 'NONE', #62, .T. ) ;
#116 = AXIS2_PLACEMENT_3D ( 'NONE', #91, #95, #68 ) ;
#117 = ADVANCED_FACE ( 'NONE', ( #92, #5 ), #60, .T. ) ;
#118 = FACE_OUTER_BOUND ( 'NONE', #83, .T. ) ;
#119 = MECHANICAL_CONTEXT ( 'NONE', #146, 'mechanical' ) ;
#120 = DATE_TIME_ROLE ( 'classification_date' ) ;
#121 = ORIENTED_EDGE ( 'NONE', *, *, #165, .F. ) ;
#122 = APPROVAL_PERSON_ORGANIZATION ( #12, #42, #87 ) ;
#123 = CARTESIAN_POINT ( 'NONE',  ( 1.104407119361929560E-14, 1.124819836996389648E-32, 3.163147707751643445 ) ) ;
#124 = EDGE_LOOP ( 'NONE', ( #167 ) ) ;
#125 = SECURITY_CLASSIFICATION_LEVEL ( 'unclassified' ) ;
#126 =( GEOMETRIC_REPRESENTATION_CONTEXT ( 3 ) GLOBAL_UNCERTAINTY_ASSIGNED_CONTEXT ( ( #127 ) ) GLOBAL_UNIT_ASSIGNED_CONTEXT ( ( #111, #197, #110 ) ) REPRESENTATION_CONTEXT ( 'NONE', 'WORKASPACE' ) );
#127 = UNCERTAINTY_MEASURE_WITH_UNIT (LENGTH_MEASURE( 1.000000000000000082E-05 ), #111, 'distance_accuracy_value', 'NONE');
#128 = VERTEX_POINT ( 'NONE', #69 ) ;
#129 = PLANE ( 'NONE',  #189 ) ;
#130 = ADVANCED_FACE ( 'NONE', ( #36 ), #48, .F. ) ;
#131 = CARTESIAN_POINT ( 'NONE',  ( 0.0000000000000000000, 0.0000000000000000000, 0.0000000000000000000 ) ) ;
#132 = ADVANCED_FACE ( 'NONE', ( #190 ), #129, .F. ) ;
#133 = AXIS2_PLACEMENT_3D ( 'NONE', #59, #32, #202 ) ;
#134 = DIRECTION ( 'NONE',  ( -3.491481338843133355E-15, 1.224646799147353207E-16, -1.000000000000000000 ) ) ;
#135 = COORDINATED_UNIVERSAL_TIME_OFFSET ( 1, 0, .AHEAD. ) ;
#136 = CARTESIAN_POINT ( 'NONE',  ( 1.326762908760390423E-13, -4.653657836759941941E-15, 38.00000000000000000 ) ) ;
#137 = PERSON_AND_ORGANIZATION ( #171, #183 ) ;
#138 = ORIENTED_EDGE ( 'NONE', *, *, #104, .F. ) ;
#139 = EDGE_LOOP ( 'NONE', ( #86 ) ) ;
#140 = MANIFOLD_SOLID_BREP ( 'Corps-Déplacer/Copier1[2]', #152 ) ;
#141 = CARTESIAN_POINT ( 'NONE',  ( -1.125958876481862964E-32, 3.949332103581996010E-34, -3.224874393442807286E-18 ) ) ;
#142 = CIRCLE ( 'NONE', #21, 0.02500000000000024772 ) ;
#143 = DIRECTION ( 'NONE',  ( -3.491481338843133355E-15, 1.224646799147353207E-16, -1.000000000000000000 ) ) ;
#144 = DIRECTION ( 'NONE',  ( 4.275831445896958607E-31, 1.000000000000000000, 1.224646799147353207E-16 ) ) ;
#145 = DIRECTION ( 'NONE',  ( -3.491481338843133355E-15, 1.224646799147353207E-16, -1.000000000000000000 ) ) ;
#146 = APPLICATION_CONTEXT ( 'configuration controlled 3d designs of mechanical parts and assemblies' ) ;
#147 = DIRECTION ( 'NONE',  ( -3.491481338843133355E-15, 1.224646799147353207E-16, -1.000000000000000000 ) ) ;
#148 = APPROVAL_PERSON_ORGANIZATION ( #39, #46, #53 ) ;
#149 = ORIENTED_EDGE ( 'NONE', *, *, #23, .F. ) ;
#150 = PERSON_AND_ORGANIZATION_ROLE ( 'creator' ) ;
#151 = CALENDAR_DATE ( 2021, 25, 11 ) ;
#152 = CLOSED_SHELL ( 'NONE', ( #132, #117, #17 ) ) ;
#153 = AXIS2_PLACEMENT_3D ( 'NONE', #1, #65, #18 ) ;
#154 = DATE_TIME_ROLE ( 'creation_date' ) ;
#155 = CARTESIAN_POINT ( 'NONE',  ( 1.104407119361929560E-14, 1.499999999999995559, 3.163147707751643445 ) ) ;
#156 = PRODUCT ( '961326', '961326', '', ( #119 ) ) ;
#157 = CC_DESIGN_PERSON_AND_ORGANIZATION_ASSIGNMENT ( #137, #150, ( #66 ) ) ;
#158 = DIRECTION ( 'NONE',  ( -3.491481338843133355E-15, 1.224646799147353207E-16, -1.000000000000000000 ) ) ;
#159 = CARTESIAN_POINT ( 'NONE',  ( 1.326762908760390423E-13, -4.653657836759941941E-15, 38.00000000000000000 ) ) ;
#160 = CIRCLE ( 'NONE', #97, 1.499999999999996003 ) ;
#161 = CARTESIAN_POINT ( 'NONE',  ( 1.104407119361929560E-14, -3.873738715528338058E-16, 3.163147707751643445 ) ) ;
#162 = AXIS2_PLACEMENT_3D ( 'NONE', #159, #134, #177 ) ;
#163 = ORIENTED_EDGE ( 'NONE', *, *, #7, .T. ) ;
#164 = CALENDAR_DATE ( 2021, 25, 11 ) ;
#165 = EDGE_CURVE ( 'NONE', #52, #52, #160, .T. ) ;
#166 = DATE_AND_TIME ( #164, #3 ) ;
#167 = ORIENTED_EDGE ( 'NONE', *, *, #100, .T. ) ;
#168 = APPROVAL_STATUS ( 'not_yet_approved' ) ;
#169 = CYLINDRICAL_SURFACE ( 'NONE', #71, 1.499999999999998002 ) ;
#170 = CARTESIAN_POINT ( 'NONE',  ( 1.104407119361929560E-14, -3.873738715528338058E-16, 3.163147707751643445 ) ) ;
#171 = PERSON ( 'UNSPECIFIED', 'UNSPECIFIED', 'UNSPECIFIED', ('UNSPECIFIED'), ('UNSPECIFIED'), ('UNSPECIFIED') ) ;
#172 = LOCAL_TIME ( 14, 42, 37.00000000000000000, #33 ) ;
#173 = FACE_OUTER_BOUND ( 'NONE', #11, .T. ) ;
#174 = DIRECTION ( 'NONE',  ( 0.0000000000000000000, 1.000000000000000000, 0.0000000000000000000 ) ) ;
#175 = CC_DESIGN_DATE_AND_TIME_ASSIGNMENT ( #45, #154, ( #114 ) ) ;
#176 = CC_DESIGN_APPROVAL ( #70, ( #66 ) ) ;
#177 = DIRECTION ( 'NONE',  ( 0.0000000000000000000, 1.000000000000000000, 0.0000000000000000000 ) ) ;
#178 = PLANE ( 'NONE',  #34 ) ;
#179 = CC_DESIGN_APPROVAL ( #46, ( #114 ) ) ;
#180 = FACE_BOUND ( 'NONE', #40, .T. ) ;
#181 = APPROVAL_DATE_TIME ( #27, #42 ) ;
#182 = DIRECTION ( 'NONE',  ( 0.0000000000000000000, 1.000000000000000000, 0.0000000000000000000 ) ) ;
#183 = ORGANIZATION ( 'UNSPECIFIED', 'UNSPECIFIED', '' ) ;
#184 = PLANE ( 'NONE',  #198 ) ;
#185 = APPLICATION_PROTOCOL_DEFINITION ( 'international standard', 'config_control_design', 1994, #99 ) ;
#186 = PERSON_AND_ORGANIZATION ( #171, #183 ) ;
#187 = DIRECTION ( 'NONE',  ( -4.275831445896958607E-31, -1.000000000000000000, -1.224646799147353207E-16 ) ) ;
#188 = PERSON_AND_ORGANIZATION ( #171, #183 ) ;
#189 = AXIS2_PLACEMENT_3D ( 'NONE', #141, #195, #109 ) ;
#190 = FACE_OUTER_BOUND ( 'NONE', #124, .T. ) ;
#191 = ADVANCED_FACE ( 'NONE', ( #173, #94 ), #169, .T. ) ;
#192 = CARTESIAN_POINT ( 'NONE',  ( 1.316288464743861212E-13, 1.499999999999995781, 37.69999999999999574 ) ) ;
#193 = CARTESIAN_POINT ( 'NONE',  ( 1.104407119361929560E-14, 1.499999999999995559, 3.163147707751643445 ) ) ;
#194 = LOCAL_TIME ( 14, 42, 37.00000000000000000, #4 ) ;
#195 = DIRECTION ( 'NONE',  ( 3.491481338843133355E-15, -1.224646799147353207E-16, 1.000000000000000000 ) ) ;
#196 = APPROVAL_STATUS ( 'not_yet_approved' ) ;
#197 =( NAMED_UNIT ( * ) PLANE_ANGLE_UNIT ( ) SI_UNIT ( $, .RADIAN. ) );
#198 = AXIS2_PLACEMENT_3D ( 'NONE', #123, #58, #187 ) ;
#199 = CC_DESIGN_DATE_AND_TIME_ASSIGNMENT ( #166, #120, ( #50 ) ) ;
#200 = FACE_OUTER_BOUND ( 'NONE', #203, .T. ) ;
#201 = ORIENTED_EDGE ( 'NONE', *, *, #100, .F. ) ;
#202 = DIRECTION ( 'NONE',  ( 1.000000000000000000, 0.0000000000000000000, 0.0000000000000000000 ) ) ;
#203 = EDGE_LOOP ( 'NONE', ( #121 ) ) ;
ENDSEC;
END-ISO-10303-21;
