ISO-10303-21;
HEADER;
FILE_DESCRIPTION (( 'STEP AP203' ),
    '1' );
FILE_NAME ('961325.step',
    '2021-11-25T13:47:04',
    ( '' ),
    ( '' ),
    'SwSTEP 2.0',
    'SolidWorks 2019',
    '' );
FILE_SCHEMA (( 'CONFIG_CONTROL_DESIGN' ));
ENDSEC;

DATA;
#1 = ADVANCED_FACE ( 'NONE', ( #36 ), #75, .F. ) ;
#2 = CC_DESIGN_APPROVAL ( #203, ( #157 ) ) ;
#3 = CALENDAR_DATE ( 2021, 25, 11 ) ;
#4 = APPLICATION_PROTOCOL_DEFINITION ( 'international standard', 'config_control_design', 1994, #98 ) ;
#5 = EDGE_LOOP ( 'NONE', ( #78 ) ) ;
#6 = SHAPE_DEFINITION_REPRESENTATION ( #99, #176 ) ;
#7 = CYLINDRICAL_SURFACE ( 'NONE', #131, 1.499999999999997780 ) ;
#8 = EDGE_LOOP ( 'NONE', ( #33 ) ) ;
#9 = AXIS2_PLACEMENT_3D ( 'NONE', #164, #165, #80 ) ;
#10 = CONICAL_SURFACE ( 'NONE', #124, 1.499999999999995559, 1.047197551196592746 ) ;
#11 = CARTESIAN_POINT ( 'NONE',  ( -1.171559688487952368E-31, 4.109278221123844588E-33, -3.355480309902319461E-17 ) ) ;
#12 = FACE_OUTER_BOUND ( 'NONE', #110, .T. ) ;
#13 = CARTESIAN_POINT ( 'NONE',  ( 1.326762908760390423E-13, 1.099999999999995426, 38.00000000000000000 ) ) ;
#14 = DIRECTION ( 'NONE',  ( -4.275831445896958607E-31, -1.000000000000000000, -1.224646799147353207E-16 ) ) ;
#15 = CC_DESIGN_APPROVAL ( #118, ( #70 ) ) ;
#16 = FACE_BOUND ( 'NONE', #91, .T. ) ;
#17 = AXIS2_PLACEMENT_3D ( 'NONE', #87, #59, #106 ) ;
#18 = ADVANCED_FACE ( 'NONE', ( #125, #194 ), #7, .T. ) ;
#19 = CALENDAR_DATE ( 2021, 25, 11 ) ;
#20 = LOCAL_TIME ( 14, 47, 4.000000000000000000, #193 ) ;
#21 = APPROVAL_ROLE ( '' ) ;
#22 = ORIENTED_EDGE ( 'NONE', *, *, #39, .F. ) ;
#23 = CLOSED_SHELL ( 'NONE', ( #32, #175, #134 ) ) ;
#24 = ORIENTED_EDGE ( 'NONE', *, *, #147, .T. ) ;
#25 = DIRECTION ( 'NONE',  ( 3.491481338843133355E-15, -1.224646799147353207E-16, 1.000000000000000000 ) ) ;
#26 =( LENGTH_UNIT ( ) NAMED_UNIT ( * ) SI_UNIT ( .MILLI., .METRE. ) );
#27 = CARTESIAN_POINT ( 'NONE',  ( 2.922921151734900733E-15, 1.499999999999995559, 0.8371578903249646819 ) ) ;
#28 = PRODUCT_DEFINITION ( 'UNKNOWN', '', #157, #161 ) ;
#29 = CALENDAR_DATE ( 2021, 25, 11 ) ;
#30 = COORDINATED_UNIVERSAL_TIME_OFFSET ( 1, 0, .AHEAD. ) ;
#31 = APPROVAL_DATE_TIME ( #174, #158 ) ;
#32 = ADVANCED_FACE ( 'NONE', ( #112 ), #159, .F. ) ;
#33 = ORIENTED_EDGE ( 'NONE', *, *, #55, .T. ) ;
#34 = COORDINATED_UNIVERSAL_TIME_OFFSET ( 1, 0, .AHEAD. ) ;
#35 = ORIENTED_EDGE ( 'NONE', *, *, #55, .F. ) ;
#36 = FACE_OUTER_BOUND ( 'NONE', #73, .T. ) ;
#37 = DIRECTION ( 'NONE',  ( -3.491481338843133355E-15, 1.224646799147353207E-16, -1.000000000000000000 ) ) ;
#38 = VERTEX_POINT ( 'NONE', #27 ) ;
#39 = EDGE_CURVE ( 'NONE', #97, #97, #108, .T. ) ;
#40 = DIRECTION ( 'NONE',  ( -3.491481338843133355E-15, 1.224646799147353207E-16, -1.000000000000000000 ) ) ;
#41 = DIRECTION ( 'NONE',  ( 3.491481338843133355E-15, -1.224646799147353207E-16, 1.000000000000000000 ) ) ;
#42 = ORGANIZATION ( 'UNSPECIFIED', 'UNSPECIFIED', '' ) ;
#43 = DATE_AND_TIME ( #119, #96 ) ;
#44 = COORDINATED_UNIVERSAL_TIME_OFFSET ( 1, 0, .AHEAD. ) ;
#45 = DATE_AND_TIME ( #3, #20 ) ;
#46 = AXIS2_PLACEMENT_3D ( 'NONE', #82, #37, #144 ) ;
#47 = DIRECTION ( 'NONE',  ( 4.275831445896959482E-31, 1.000000000000000000, 1.224646799147353207E-16 ) ) ;
#48 = PRODUCT ( '961325', '961325', '', ( #56 ) ) ;
#49 = CARTESIAN_POINT ( 'NONE',  ( -2.129327804681057155E-31, 0.05000000000000000278, -6.098637220230962441E-17 ) ) ;
#50 = FACE_OUTER_BOUND ( 'NONE', #8, .T. ) ;
#51 = DIRECTION ( 'NONE',  ( 4.275831445896955103E-31, 1.000000000000000000, 1.224646799147353700E-16 ) ) ;
#52 = CARTESIAN_POINT ( 'NONE',  ( 1.326762908760390423E-13, 8.248678804640148420E-33, 38.00000000000000000 ) ) ;
#53 = AXIS2_PLACEMENT_3D ( 'NONE', #52, #95, #146 ) ;
#54 = PERSON_AND_ORGANIZATION ( #76, #42 ) ;
#55 = EDGE_CURVE ( 'NONE', #38, #38, #135, .T. ) ;
#56 = MECHANICAL_CONTEXT ( 'NONE', #98, 'mechanical' ) ;
#57 = ORIENTED_EDGE ( 'NONE', *, *, #185, .T. ) ;
#58 = CC_DESIGN_APPROVAL ( #158, ( #28 ) ) ;
#59 = DIRECTION ( 'NONE',  ( 0.0000000000000000000, 0.0000000000000000000, 1.000000000000000000 ) ) ;
#60 = EDGE_LOOP ( 'NONE', ( #163 ) ) ;
#61 = AXIS2_PLACEMENT_3D ( 'NONE', #11, #25, #148 ) ;
#62 = PLANE ( 'NONE',  #178 ) ;
#63 = CARTESIAN_POINT ( 'NONE',  ( 1.312796983405018142E-13, 1.499999999999995781, 37.60000000000000142 ) ) ;
#64 = CARTESIAN_POINT ( 'NONE',  ( 2.922921151734899944E-15, -1.025222730767418753E-16, 0.8371578903249645709 ) ) ;
#65 = FACE_BOUND ( 'NONE', #90, .T. ) ;
#66 = CC_DESIGN_SECURITY_CLASSIFICATION ( #70, ( #157 ) ) ;
#67 = CC_DESIGN_PERSON_AND_ORGANIZATION_ASSIGNMENT ( #162, #171, ( #28 ) ) ;
#68 = CALENDAR_DATE ( 2021, 25, 11 ) ;
#69 = DATE_AND_TIME ( #68, #196 ) ;
#70 = SECURITY_CLASSIFICATION ( '', '', #121 ) ;
#71 = PERSON_AND_ORGANIZATION_ROLE ( 'design_supplier' ) ;
#72 = PERSON_AND_ORGANIZATION ( #76, #42 ) ;
#73 = EDGE_LOOP ( 'NONE', ( #179 ) ) ;
#74 = APPROVAL_DATE_TIME ( #45, #118 ) ;
#75 = PLANE ( 'NONE',  #156 ) ;
#76 = PERSON ( 'UNSPECIFIED', 'UNSPECIFIED', 'UNSPECIFIED', ('UNSPECIFIED'), ('UNSPECIFIED'), ('UNSPECIFIED') ) ;
#77 = APPLICATION_CONTEXT ( 'configuration controlled 3d designs of mechanical parts and assemblies' ) ;
#78 = ORIENTED_EDGE ( 'NONE', *, *, #147, .F. ) ;
#79 = EDGE_LOOP ( 'NONE', ( #22 ) ) ;
#80 = DIRECTION ( 'NONE',  ( 5.135813185032644414E-31, 1.000000000000000000, 1.445602896647343601E-16 ) ) ;
#81 = CC_DESIGN_PERSON_AND_ORGANIZATION_ASSIGNMENT ( #187, #71, ( #157 ) ) ;
#82 = CARTESIAN_POINT ( 'NONE',  ( 1.312796983405018142E-13, -4.604671964794047724E-15, 37.60000000000000142 ) ) ;
#83 =( GEOMETRIC_REPRESENTATION_CONTEXT ( 3 ) GLOBAL_UNCERTAINTY_ASSIGNED_CONTEXT ( ( #142 ) ) GLOBAL_UNIT_ASSIGNED_CONTEXT ( ( #26, #115, #116 ) ) REPRESENTATION_CONTEXT ( 'NONE', 'WORKASPACE' ) );
#84 = VERTEX_POINT ( 'NONE', #49 ) ;
#85 = DATE_TIME_ROLE ( 'classification_date' ) ;
#86 = LOCAL_TIME ( 14, 47, 4.000000000000000000, #44 ) ;
#87 = CARTESIAN_POINT ( 'NONE',  ( 0.0000000000000000000, 0.0000000000000000000, 0.0000000000000000000 ) ) ;
#88 = CC_DESIGN_DATE_AND_TIME_ASSIGNMENT ( #69, #85, ( #70 ) ) ;
#89 = DATE_AND_TIME ( #19, #189 ) ;
#90 = EDGE_LOOP ( 'NONE', ( #57 ) ) ;
#91 = EDGE_LOOP ( 'NONE', ( #93 ) ) ;
#92 = APPROVAL_PERSON_ORGANIZATION ( #72, #203, #21 ) ;
#93 = ORIENTED_EDGE ( 'NONE', *, *, #94, .F. ) ;
#94 = EDGE_CURVE ( 'NONE', #84, #84, #117, .T. ) ;
#95 = DIRECTION ( 'NONE',  ( -3.491481338843133355E-15, 1.224646799147353207E-16, -1.000000000000000000 ) ) ;
#96 = LOCAL_TIME ( 14, 47, 4.000000000000000000, #154 ) ;
#97 = VERTEX_POINT ( 'NONE', #130 ) ;
#98 = APPLICATION_CONTEXT ( 'configuration controlled 3d designs of mechanical parts and assemblies' ) ;
#99 = PRODUCT_DEFINITION_SHAPE ( 'NONE', 'NONE',  #28 ) ;
#100 = CARTESIAN_POINT ( 'NONE',  ( 1.326762908760390423E-13, -4.653657836759941941E-15, 38.00000000000000000 ) ) ;
#101 = DIRECTION ( 'NONE',  ( 0.0000000000000000000, 1.000000000000000000, 0.0000000000000000000 ) ) ;
#102 = APPROVAL_PERSON_ORGANIZATION ( #172, #158, #190 ) ;
#103 = PERSON_AND_ORGANIZATION_ROLE ( 'creator' ) ;
#104 = MANIFOLD_SOLID_BREP ( 'Corps-Déplacer/Copier1[1]', #105 ) ;
#105 = CLOSED_SHELL ( 'NONE', ( #1, #18, #150, #109 ) ) ;
#106 = DIRECTION ( 'NONE',  ( 1.000000000000000000, 0.0000000000000000000, 0.0000000000000000000 ) ) ;
#107 = APPLICATION_PROTOCOL_DEFINITION ( 'international standard', 'config_control_design', 1994, #77 ) ;
#108 = CIRCLE ( 'NONE', #188, 1.499999999999995559 ) ;
#109 = ADVANCED_FACE ( 'NONE', ( #186 ), #113, .F. ) ;
#110 = EDGE_LOOP ( 'NONE', ( #35 ) ) ;
#111 = EDGE_LOOP ( 'NONE', ( #143 ) ) ;
#112 = FACE_OUTER_BOUND ( 'NONE', #60, .T. ) ;
#113 = PLANE ( 'NONE',  #53 ) ;
#114 = CARTESIAN_POINT ( 'NONE',  ( 2.922921151734899944E-15, -6.050989356024738852E-17, 0.8371578903249645709 ) ) ;
#115 =( NAMED_UNIT ( * ) PLANE_ANGLE_UNIT ( ) SI_UNIT ( $, .RADIAN. ) );
#116 =( NAMED_UNIT ( * ) SI_UNIT ( $, .STERADIAN. ) SOLID_ANGLE_UNIT ( ) );
#117 = CIRCLE ( 'NONE', #145, 0.05000000000000000278 ) ;
#118 = APPROVAL ( #137, 'UNSPECIFIED' ) ;
#119 = CALENDAR_DATE ( 2021, 25, 11 ) ;
#120 = DATE_TIME_ROLE ( 'creation_date' ) ;
#121 = SECURITY_CLASSIFICATION_LEVEL ( 'unclassified' ) ;
#122 = CC_DESIGN_PERSON_AND_ORGANIZATION_ASSIGNMENT ( #138, #192, ( #70 ) ) ;
#123 = DIRECTION ( 'NONE',  ( 3.491481338843133355E-15, -1.224646799147353207E-16, 1.000000000000000000 ) ) ;
#124 = AXIS2_PLACEMENT_3D ( 'NONE', #182, #169, #128 ) ;
#125 = FACE_OUTER_BOUND ( 'NONE', #79, .T. ) ;
#126 = DIRECTION ( 'NONE',  ( -4.275831445896958607E-31, -1.000000000000000000, -1.224646799147353207E-16 ) ) ;
#127 = CIRCLE ( 'NONE', #132, 1.100000000000000089 ) ;
#128 = DIRECTION ( 'NONE',  ( -5.135813185032644414E-31, -1.000000000000000000, -1.445602896647343601E-16 ) ) ;
#129 = VERTEX_POINT ( 'NONE', #63 ) ;
#130 = CARTESIAN_POINT ( 'NONE',  ( 2.922921151734900733E-15, 1.499999999999995559, 0.8371578903249646819 ) ) ;
#131 = AXIS2_PLACEMENT_3D ( 'NONE', #195, #197, #47 ) ;
#132 = AXIS2_PLACEMENT_3D ( 'NONE', #200, #198, #202 ) ;
#133 = FACE_OUTER_BOUND ( 'NONE', #5, .T. ) ;
#134 = ADVANCED_FACE ( 'NONE', ( #12 ), #62, .T. ) ;
#135 = CIRCLE ( 'NONE', #9, 1.499999999999995559 ) ;
#136 = APPROVAL_ROLE ( '' ) ;
#137 = APPROVAL_STATUS ( 'not_yet_approved' ) ;
#138 = PERSON_AND_ORGANIZATION ( #76, #42 ) ;
#139 = PERSON_AND_ORGANIZATION ( #76, #42 ) ;
#140 = CARTESIAN_POINT ( 'NONE',  ( 2.922921151734899944E-15, -6.050989356024738852E-17, 0.8371578903249645709 ) ) ;
#141 = CC_DESIGN_PERSON_AND_ORGANIZATION_ASSIGNMENT ( #54, #155, ( #48 ) ) ;
#142 = UNCERTAINTY_MEASURE_WITH_UNIT (LENGTH_MEASURE( 1.000000000000000082E-05 ), #26, 'distance_accuracy_value', 'NONE');
#143 = ORIENTED_EDGE ( 'NONE', *, *, #185, .F. ) ;
#144 = DIRECTION ( 'NONE',  ( 0.0000000000000000000, 1.000000000000000000, 0.0000000000000000000 ) ) ;
#145 = AXIS2_PLACEMENT_3D ( 'NONE', #149, #184, #51 ) ;
#146 = DIRECTION ( 'NONE',  ( 4.275831445896958607E-31, 1.000000000000000000, 1.224646799147353207E-16 ) ) ;
#147 = EDGE_CURVE ( 'NONE', #129, #129, #167, .T. ) ;
#148 = DIRECTION ( 'NONE',  ( -4.275831445896958607E-31, -1.000000000000000000, -1.224646799147353207E-16 ) ) ;
#149 = CARTESIAN_POINT ( 'NONE',  ( -2.343119376975904735E-31, 8.218556442247689176E-33, -6.710960619804638922E-17 ) ) ;
#150 = ADVANCED_FACE ( 'NONE', ( #133, #65 ), #170, .T. ) ;
#151 = DIRECTION ( 'NONE',  ( 5.135813185032644414E-31, 1.000000000000000000, 1.445602896647343601E-16 ) ) ;
#152 = PERSON_AND_ORGANIZATION ( #76, #42 ) ;
#153 = AXIS2_PLACEMENT_3D ( 'NONE', #100, #183, #101 ) ;
#154 = COORDINATED_UNIVERSAL_TIME_OFFSET ( 1, 0, .AHEAD. ) ;
#155 = PERSON_AND_ORGANIZATION_ROLE ( 'design_owner' ) ;
#156 = AXIS2_PLACEMENT_3D ( 'NONE', #140, #123, #126 ) ;
#157 = PRODUCT_DEFINITION_FORMATION_WITH_SPECIFIED_SOURCE ( 'ANY', '', #48, .NOT_KNOWN. ) ;
#158 = APPROVAL ( #177, 'UNSPECIFIED' ) ;
#159 = PLANE ( 'NONE',  #61 ) ;
#160 = APPROVAL_DATE_TIME ( #89, #203 ) ;
#161 = DESIGN_CONTEXT ( 'detailed design', #77, 'design' ) ;
#162 = PERSON_AND_ORGANIZATION ( #76, #42 ) ;
#163 = ORIENTED_EDGE ( 'NONE', *, *, #94, .T. ) ;
#164 = CARTESIAN_POINT ( 'NONE',  ( 2.922921151734899944E-15, -1.025222730767418753E-16, 0.8371578903249645709 ) ) ;
#165 = DIRECTION ( 'NONE',  ( -3.491481338843133355E-15, 1.224646799147353207E-16, -1.000000000000000000 ) ) ;
#166 = CC_DESIGN_PERSON_AND_ORGANIZATION_ASSIGNMENT ( #152, #103, ( #157 ) ) ;
#167 = CIRCLE ( 'NONE', #46, 1.500000000000000222 ) ;
#168 = CC_DESIGN_DATE_AND_TIME_ASSIGNMENT ( #43, #120, ( #28 ) ) ;
#169 = DIRECTION ( 'NONE',  ( 3.491481338843133355E-15, -1.224646799147353207E-16, 1.000000000000000000 ) ) ;
#170 = CONICAL_SURFACE ( 'NONE', #153, 1.100000000000000089, 0.7853981633974516097 ) ;
#171 = PERSON_AND_ORGANIZATION_ROLE ( 'creator' ) ;
#172 = PERSON_AND_ORGANIZATION ( #76, #42 ) ;
#173 = MANIFOLD_SOLID_BREP ( 'Corps-Déplacer/Copier1[2]', #23 ) ;
#174 = DATE_AND_TIME ( #29, #86 ) ;
#175 = ADVANCED_FACE ( 'NONE', ( #16, #50 ), #10, .T. ) ;
#176 = ADVANCED_BREP_SHAPE_REPRESENTATION ( '961325', ( #104, #173, #17 ), #83 ) ;
#177 = APPROVAL_STATUS ( 'not_yet_approved' ) ;
#178 = AXIS2_PLACEMENT_3D ( 'NONE', #114, #41, #14 ) ;
#179 = ORIENTED_EDGE ( 'NONE', *, *, #39, .T. ) ;
#180 = EDGE_LOOP ( 'NONE', ( #24 ) ) ;
#181 = PRODUCT_RELATED_PRODUCT_CATEGORY ( 'detail', '', ( #48 ) ) ;
#182 = CARTESIAN_POINT ( 'NONE',  ( 2.922921151734899944E-15, -1.025222730767418753E-16, 0.8371578903249645709 ) ) ;
#183 = DIRECTION ( 'NONE',  ( -3.491481338843133355E-15, 1.224646799147353207E-16, -1.000000000000000000 ) ) ;
#184 = DIRECTION ( 'NONE',  ( -3.491481338843133355E-15, 1.224646799147353207E-16, -1.000000000000000000 ) ) ;
#185 = EDGE_CURVE ( 'NONE', #199, #199, #127, .T. ) ;
#186 = FACE_OUTER_BOUND ( 'NONE', #111, .T. ) ;
#187 = PERSON_AND_ORGANIZATION ( #76, #42 ) ;
#188 = AXIS2_PLACEMENT_3D ( 'NONE', #64, #40, #151 ) ;
#189 = LOCAL_TIME ( 14, 47, 4.000000000000000000, #30 ) ;
#190 = APPROVAL_ROLE ( '' ) ;
#191 = APPROVAL_STATUS ( 'not_yet_approved' ) ;
#192 = PERSON_AND_ORGANIZATION_ROLE ( 'classification_officer' ) ;
#193 = COORDINATED_UNIVERSAL_TIME_OFFSET ( 1, 0, .AHEAD. ) ;
#194 = FACE_OUTER_BOUND ( 'NONE', #180, .T. ) ;
#195 = CARTESIAN_POINT ( 'NONE',  ( 0.0000000000000000000, 0.0000000000000000000, 0.0000000000000000000 ) ) ;
#196 = LOCAL_TIME ( 14, 47, 4.000000000000000000, #34 ) ;
#197 = DIRECTION ( 'NONE',  ( -3.491481338843133355E-15, 1.224646799147353207E-16, -1.000000000000000000 ) ) ;
#198 = DIRECTION ( 'NONE',  ( -3.491481338843133355E-15, 1.224646799147353207E-16, -1.000000000000000000 ) ) ;
#199 = VERTEX_POINT ( 'NONE', #13 ) ;
#200 = CARTESIAN_POINT ( 'NONE',  ( 1.326762908760390423E-13, -4.653657836759941941E-15, 38.00000000000000000 ) ) ;
#201 = APPROVAL_PERSON_ORGANIZATION ( #139, #118, #136 ) ;
#202 = DIRECTION ( 'NONE',  ( 0.0000000000000000000, 1.000000000000000000, 0.0000000000000000000 ) ) ;
#203 = APPROVAL ( #191, 'UNSPECIFIED' ) ;
ENDSEC;
END-ISO-10303-21;
