ISO-10303-21;
HEADER;
FILE_DESCRIPTION (( 'STEP AP203' ),
    '1' );
FILE_NAME ('961324.step',
    '2021-11-25T13:42:37',
    ( '' ),
    ( '' ),
    'SwSTEP 2.0',
    'SolidWorks 2019',
    '' );
FILE_SCHEMA (( 'CONFIG_CONTROL_DESIGN' ));
ENDSEC;

DATA;
#1 = CIRCLE ( 'NONE', #22, 1.499999999999995559 ) ;
#2 = PRODUCT_DEFINITION_SHAPE ( 'NONE', 'NONE',  #112 ) ;
#3 = EDGE_LOOP ( 'NONE', ( #97 ) ) ;
#4 = AXIS2_PLACEMENT_3D ( 'NONE', #94, #99, #86 ) ;
#5 = MANIFOLD_SOLID_BREP ( 'Corps-Déplacer/Copier1[1]', #128 ) ;
#6 = EDGE_CURVE ( 'NONE', #195, #195, #199, .T. ) ;
#7 = DIRECTION ( 'NONE',  ( 0.0000000000000000000, 1.000000000000000000, 0.0000000000000000000 ) ) ;
#8 = CYLINDRICAL_SURFACE ( 'NONE', #4, 1.499999999999997780 ) ;
#9 = CC_DESIGN_SECURITY_CLASSIFICATION ( #13, ( #104 ) ) ;
#10 = FACE_OUTER_BOUND ( 'NONE', #78, .T. ) ;
#11 = FACE_BOUND ( 'NONE', #45, .T. ) ;
#12 = VERTEX_POINT ( 'NONE', #118 ) ;
#13 = SECURITY_CLASSIFICATION ( '', '', #137 ) ;
#14 = APPROVAL_STATUS ( 'not_yet_approved' ) ;
#15 = APPROVAL_ROLE ( '' ) ;
#16 = PERSON_AND_ORGANIZATION_ROLE ( 'creator' ) ;
#17 = CC_DESIGN_APPROVAL ( #190, ( #104 ) ) ;
#18 = DIRECTION ( 'NONE',  ( 5.135813185032644414E-31, 1.000000000000000000, 1.445602896647343601E-16 ) ) ;
#19 = CARTESIAN_POINT ( 'NONE',  ( 2.922921151734899944E-15, -6.050989356024738852E-17, 0.8371578903249645709 ) ) ;
#20 = CARTESIAN_POINT ( 'NONE',  ( 1.312796983405018142E-13, -4.604671964794047724E-15, 37.60000000000000142 ) ) ;
#21 = CARTESIAN_POINT ( 'NONE',  ( 2.922921151734899944E-15, -1.025222730767418753E-16, 0.8371578903249645709 ) ) ;
#22 = AXIS2_PLACEMENT_3D ( 'NONE', #69, #177, #163 ) ;
#23 = DESIGN_CONTEXT ( 'detailed design', #173, 'design' ) ;
#24 = DIRECTION ( 'NONE',  ( 4.275831445896958607E-31, 1.000000000000000000, 1.224646799147353207E-16 ) ) ;
#25 = CARTESIAN_POINT ( 'NONE',  ( 0.0000000000000000000, 0.0000000000000000000, 0.0000000000000000000 ) ) ;
#26 = APPLICATION_PROTOCOL_DEFINITION ( 'international standard', 'config_control_design', 1994, #173 ) ;
#27 = AXIS2_PLACEMENT_3D ( 'NONE', #130, #192, #24 ) ;
#28 = CARTESIAN_POINT ( 'NONE',  ( 2.922921151734900733E-15, 1.499999999999995559, 0.8371578903249646819 ) ) ;
#29 = VERTEX_POINT ( 'NONE', #185 ) ;
#30 = ADVANCED_FACE ( 'NONE', ( #50 ), #111, .F. ) ;
#31 = CALENDAR_DATE ( 2021, 25, 11 ) ;
#32 = PRODUCT ( '961324', '961324', '', ( #58 ) ) ;
#33 = AXIS2_PLACEMENT_3D ( 'NONE', #143, #49, #180 ) ;
#34 = CLOSED_SHELL ( 'NONE', ( #30, #202, #146 ) ) ;
#35 = EDGE_CURVE ( 'NONE', #115, #115, #72, .T. ) ;
#36 = FACE_OUTER_BOUND ( 'NONE', #193, .T. ) ;
#37 = PLANE ( 'NONE',  #33 ) ;
#38 = CC_DESIGN_PERSON_AND_ORGANIZATION_ASSIGNMENT ( #75, #167, ( #104 ) ) ;
#39 = CALENDAR_DATE ( 2021, 25, 11 ) ;
#40 = DIRECTION ( 'NONE',  ( 0.0000000000000000000, 0.0000000000000000000, 1.000000000000000000 ) ) ;
#41 = ADVANCED_BREP_SHAPE_REPRESENTATION ( '961324', ( #5, #138, #159 ), #93 ) ;
#42 = APPROVAL_ROLE ( '' ) ;
#43 = APPROVAL_STATUS ( 'not_yet_approved' ) ;
#44 = LOCAL_TIME ( 14, 42, 37.00000000000000000, #188 ) ;
#45 = EDGE_LOOP ( 'NONE', ( #124 ) ) ;
#46 = CC_DESIGN_APPROVAL ( #166, ( #13 ) ) ;
#47 = EDGE_CURVE ( 'NONE', #87, #87, #1, .T. ) ;
#48 = EDGE_LOOP ( 'NONE', ( #174 ) ) ;
#49 = DIRECTION ( 'NONE',  ( 3.491481338843133355E-15, -1.224646799147353207E-16, 1.000000000000000000 ) ) ;
#50 = FACE_OUTER_BOUND ( 'NONE', #144, .T. ) ;
#51 = CARTESIAN_POINT ( 'NONE',  ( -2.343119376975904735E-31, 8.218556442247689176E-33, -6.710960619804638922E-17 ) ) ;
#52 = CARTESIAN_POINT ( 'NONE',  ( 1.326762908760390423E-13, 1.099999999999995426, 38.00000000000000000 ) ) ;
#53 = APPROVAL_DATE_TIME ( #122, #198 ) ;
#54 =( NAMED_UNIT ( * ) PLANE_ANGLE_UNIT ( ) SI_UNIT ( $, .RADIAN. ) );
#55 = CC_DESIGN_DATE_AND_TIME_ASSIGNMENT ( #153, #182, ( #13 ) ) ;
#56 = PERSON_AND_ORGANIZATION ( #77, #155 ) ;
#57 = PERSON_AND_ORGANIZATION ( #77, #155 ) ;
#58 = MECHANICAL_CONTEXT ( 'NONE', #64, 'mechanical' ) ;
#59 = APPROVAL_PERSON_ORGANIZATION ( #101, #198, #139 ) ;
#60 = EDGE_LOOP ( 'NONE', ( #109 ) ) ;
#61 = ORIENTED_EDGE ( 'NONE', *, *, #186, .T. ) ;
#62 = EDGE_LOOP ( 'NONE', ( #125 ) ) ;
#63 = LOCAL_TIME ( 14, 42, 37.00000000000000000, #168 ) ;
#64 = APPLICATION_CONTEXT ( 'configuration controlled 3d designs of mechanical parts and assemblies' ) ;
#65 = FACE_OUTER_BOUND ( 'NONE', #191, .T. ) ;
#66 = DIRECTION ( 'NONE',  ( 0.0000000000000000000, 1.000000000000000000, 0.0000000000000000000 ) ) ;
#67 = ADVANCED_FACE ( 'NONE', ( #65, #126 ), #119, .T. ) ;
#68 = CIRCLE ( 'NONE', #89, 1.499999999999995559 ) ;
#69 = CARTESIAN_POINT ( 'NONE',  ( 2.922921151734899944E-15, -1.025222730767418753E-16, 0.8371578903249645709 ) ) ;
#70 = CARTESIAN_POINT ( 'NONE',  ( 2.922921151734899944E-15, -1.025222730767418753E-16, 0.8371578903249645709 ) ) ;
#71 = ORIENTED_EDGE ( 'NONE', *, *, #47, .T. ) ;
#72 = CIRCLE ( 'NONE', #76, 1.500000000000000222 ) ;
#73 = APPLICATION_PROTOCOL_DEFINITION ( 'international standard', 'config_control_design', 1994, #64 ) ;
#74 = CC_DESIGN_PERSON_AND_ORGANIZATION_ASSIGNMENT ( #135, #197, ( #112 ) ) ;
#75 = PERSON_AND_ORGANIZATION ( #77, #155 ) ;
#76 = AXIS2_PLACEMENT_3D ( 'NONE', #20, #96, #145 ) ;
#77 = PERSON ( 'UNSPECIFIED', 'UNSPECIFIED', 'UNSPECIFIED', ('UNSPECIFIED'), ('UNSPECIFIED'), ('UNSPECIFIED') ) ;
#78 = EDGE_LOOP ( 'NONE', ( #71 ) ) ;
#79 = CONICAL_SURFACE ( 'NONE', #84, 1.499999999999995559, 1.047197551196592746 ) ;
#80 = DIRECTION ( 'NONE',  ( -3.491481338843133355E-15, 1.224646799147353207E-16, -1.000000000000000000 ) ) ;
#81 = CARTESIAN_POINT ( 'NONE',  ( -1.171559688487952368E-31, 4.109278221123844588E-33, -3.355480309902319461E-17 ) ) ;
#82 = FACE_OUTER_BOUND ( 'NONE', #140, .T. ) ;
#83 = AXIS2_PLACEMENT_3D ( 'NONE', #127, #160, #66 ) ;
#84 = AXIS2_PLACEMENT_3D ( 'NONE', #70, #132, #194 ) ;
#85 = DIRECTION ( 'NONE',  ( 3.491481338843133355E-15, -1.224646799147353207E-16, 1.000000000000000000 ) ) ;
#86 = DIRECTION ( 'NONE',  ( 4.275831445896959482E-31, 1.000000000000000000, 1.224646799147353207E-16 ) ) ;
#87 = VERTEX_POINT ( 'NONE', #28 ) ;
#88 = COORDINATED_UNIVERSAL_TIME_OFFSET ( 1, 0, .AHEAD. ) ;
#89 = AXIS2_PLACEMENT_3D ( 'NONE', #21, #80, #18 ) ;
#90 = ORIENTED_EDGE ( 'NONE', *, *, #35, .T. ) ;
#91 = EDGE_CURVE ( 'NONE', #12, #12, #68, .T. ) ;
#92 = UNCERTAINTY_MEASURE_WITH_UNIT (LENGTH_MEASURE( 1.000000000000000082E-05 ), #170, 'distance_accuracy_value', 'NONE');
#93 =( GEOMETRIC_REPRESENTATION_CONTEXT ( 3 ) GLOBAL_UNCERTAINTY_ASSIGNED_CONTEXT ( ( #92 ) ) GLOBAL_UNIT_ASSIGNED_CONTEXT ( ( #170, #54, #133 ) ) REPRESENTATION_CONTEXT ( 'NONE', 'WORKASPACE' ) );
#94 = CARTESIAN_POINT ( 'NONE',  ( 0.0000000000000000000, 0.0000000000000000000, 0.0000000000000000000 ) ) ;
#95 = DIRECTION ( 'NONE',  ( 3.491481338843133355E-15, -1.224646799147353207E-16, 1.000000000000000000 ) ) ;
#96 = DIRECTION ( 'NONE',  ( -3.491481338843133355E-15, 1.224646799147353207E-16, -1.000000000000000000 ) ) ;
#97 = ORIENTED_EDGE ( 'NONE', *, *, #91, .T. ) ;
#98 = CIRCLE ( 'NONE', #176, 0.05000000000000000278 ) ;
#99 = DIRECTION ( 'NONE',  ( -3.491481338843133355E-15, 1.224646799147353207E-16, -1.000000000000000000 ) ) ;
#100 = ORIENTED_EDGE ( 'NONE', *, *, #91, .F. ) ;
#101 = PERSON_AND_ORGANIZATION ( #77, #155 ) ;
#102 = APPROVAL_DATE_TIME ( #134, #166 ) ;
#103 = DATE_AND_TIME ( #31, #44 ) ;
#104 = PRODUCT_DEFINITION_FORMATION_WITH_SPECIFIED_SOURCE ( 'ANY', '', #32, .NOT_KNOWN. ) ;
#105 = SHAPE_DEFINITION_REPRESENTATION ( #2, #41 ) ;
#106 = APPROVAL_DATE_TIME ( #103, #190 ) ;
#107 = ADVANCED_FACE ( 'NONE', ( #183 ), #189, .F. ) ;
#108 = CC_DESIGN_APPROVAL ( #198, ( #112 ) ) ;
#109 = ORIENTED_EDGE ( 'NONE', *, *, #6, .F. ) ;
#110 = AXIS2_PLACEMENT_3D ( 'NONE', #114, #165, #7 ) ;
#111 = PLANE ( 'NONE',  #164 ) ;
#112 = PRODUCT_DEFINITION ( 'UNKNOWN', '', #104, #23 ) ;
#113 = DIRECTION ( 'NONE',  ( -3.491481338843133355E-15, 1.224646799147353207E-16, -1.000000000000000000 ) ) ;
#114 = CARTESIAN_POINT ( 'NONE',  ( 1.326762908760390423E-13, -4.653657836759941941E-15, 38.00000000000000000 ) ) ;
#115 = VERTEX_POINT ( 'NONE', #152 ) ;
#116 = DATE_AND_TIME ( #123, #169 ) ;
#117 = APPROVAL_STATUS ( 'not_yet_approved' ) ;
#118 = CARTESIAN_POINT ( 'NONE',  ( 2.922921151734900733E-15, 1.499999999999995559, 0.8371578903249646819 ) ) ;
#119 = CONICAL_SURFACE ( 'NONE', #110, 1.100000000000000089, 0.7853981633974516097 ) ;
#120 = PERSON_AND_ORGANIZATION_ROLE ( 'design_owner' ) ;
#121 = ADVANCED_FACE ( 'NONE', ( #149 ), #37, .F. ) ;
#122 = DATE_AND_TIME ( #151, #200 ) ;
#123 = CALENDAR_DATE ( 2021, 25, 11 ) ;
#124 = ORIENTED_EDGE ( 'NONE', *, *, #186, .F. ) ;
#125 = ORIENTED_EDGE ( 'NONE', *, *, #47, .F. ) ;
#126 = FACE_BOUND ( 'NONE', #48, .T. ) ;
#127 = CARTESIAN_POINT ( 'NONE',  ( 1.326762908760390423E-13, -4.653657836759941941E-15, 38.00000000000000000 ) ) ;
#128 = CLOSED_SHELL ( 'NONE', ( #121, #154, #67, #107 ) ) ;
#129 = APPROVAL_PERSON_ORGANIZATION ( #148, #166, #15 ) ;
#130 = CARTESIAN_POINT ( 'NONE',  ( 1.326762908760390423E-13, 8.248678804640148420E-33, 38.00000000000000000 ) ) ;
#131 = ORIENTED_EDGE ( 'NONE', *, *, #35, .F. ) ;
#132 = DIRECTION ( 'NONE',  ( 3.491481338843133355E-15, -1.224646799147353207E-16, 1.000000000000000000 ) ) ;
#133 =( NAMED_UNIT ( * ) SI_UNIT ( $, .STERADIAN. ) SOLID_ANGLE_UNIT ( ) );
#134 = DATE_AND_TIME ( #39, #63 ) ;
#135 = PERSON_AND_ORGANIZATION ( #77, #155 ) ;
#136 = LOCAL_TIME ( 14, 42, 37.00000000000000000, #88 ) ;
#137 = SECURITY_CLASSIFICATION_LEVEL ( 'unclassified' ) ;
#138 = MANIFOLD_SOLID_BREP ( 'Corps-Déplacer/Copier1[2]', #34 ) ;
#139 = APPROVAL_ROLE ( '' ) ;
#140 = EDGE_LOOP ( 'NONE', ( #90 ) ) ;
#141 = CC_DESIGN_PERSON_AND_ORGANIZATION_ASSIGNMENT ( #201, #172, ( #13 ) ) ;
#142 = AXIS2_PLACEMENT_3D ( 'NONE', #19, #95, #175 ) ;
#143 = CARTESIAN_POINT ( 'NONE',  ( 2.922921151734899944E-15, -6.050989356024738852E-17, 0.8371578903249645709 ) ) ;
#144 = EDGE_LOOP ( 'NONE', ( #61 ) ) ;
#145 = DIRECTION ( 'NONE',  ( 0.0000000000000000000, 1.000000000000000000, 0.0000000000000000000 ) ) ;
#146 = ADVANCED_FACE ( 'NONE', ( #147 ), #162, .T. ) ;
#147 = FACE_OUTER_BOUND ( 'NONE', #62, .T. ) ;
#148 = PERSON_AND_ORGANIZATION ( #77, #155 ) ;
#149 = FACE_OUTER_BOUND ( 'NONE', #3, .T. ) ;
#150 = PRODUCT_RELATED_PRODUCT_CATEGORY ( 'detail', '', ( #32 ) ) ;
#151 = CALENDAR_DATE ( 2021, 25, 11 ) ;
#152 = CARTESIAN_POINT ( 'NONE',  ( 1.312796983405018142E-13, 1.499999999999995781, 37.60000000000000142 ) ) ;
#153 = DATE_AND_TIME ( #179, #136 ) ;
#154 = ADVANCED_FACE ( 'NONE', ( #36, #82 ), #8, .T. ) ;
#155 = ORGANIZATION ( 'UNSPECIFIED', 'UNSPECIFIED', '' ) ;
#156 = PERSON_AND_ORGANIZATION ( #77, #155 ) ;
#157 = CC_DESIGN_PERSON_AND_ORGANIZATION_ASSIGNMENT ( #56, #120, ( #32 ) ) ;
#158 = DIRECTION ( 'NONE',  ( -4.275831445896958607E-31, -1.000000000000000000, -1.224646799147353207E-16 ) ) ;
#159 = AXIS2_PLACEMENT_3D ( 'NONE', #25, #40, #171 ) ;
#160 = DIRECTION ( 'NONE',  ( -3.491481338843133355E-15, 1.224646799147353207E-16, -1.000000000000000000 ) ) ;
#161 = CC_DESIGN_DATE_AND_TIME_ASSIGNMENT ( #116, #187, ( #112 ) ) ;
#162 = PLANE ( 'NONE',  #142 ) ;
#163 = DIRECTION ( 'NONE',  ( 5.135813185032644414E-31, 1.000000000000000000, 1.445602896647343601E-16 ) ) ;
#164 = AXIS2_PLACEMENT_3D ( 'NONE', #81, #85, #158 ) ;
#165 = DIRECTION ( 'NONE',  ( -3.491481338843133355E-15, 1.224646799147353207E-16, -1.000000000000000000 ) ) ;
#166 = APPROVAL ( #117, 'UNSPECIFIED' ) ;
#167 = PERSON_AND_ORGANIZATION_ROLE ( 'design_supplier' ) ;
#168 = COORDINATED_UNIVERSAL_TIME_OFFSET ( 1, 0, .AHEAD. ) ;
#169 = LOCAL_TIME ( 14, 42, 37.00000000000000000, #184 ) ;
#170 =( LENGTH_UNIT ( ) NAMED_UNIT ( * ) SI_UNIT ( .MILLI., .METRE. ) );
#171 = DIRECTION ( 'NONE',  ( 1.000000000000000000, 0.0000000000000000000, 0.0000000000000000000 ) ) ;
#172 = PERSON_AND_ORGANIZATION_ROLE ( 'classification_officer' ) ;
#173 = APPLICATION_CONTEXT ( 'configuration controlled 3d designs of mechanical parts and assemblies' ) ;
#174 = ORIENTED_EDGE ( 'NONE', *, *, #6, .T. ) ;
#175 = DIRECTION ( 'NONE',  ( -4.275831445896958607E-31, -1.000000000000000000, -1.224646799147353207E-16 ) ) ;
#176 = AXIS2_PLACEMENT_3D ( 'NONE', #51, #113, #178 ) ;
#177 = DIRECTION ( 'NONE',  ( -3.491481338843133355E-15, 1.224646799147353207E-16, -1.000000000000000000 ) ) ;
#178 = DIRECTION ( 'NONE',  ( 4.275831445896955103E-31, 1.000000000000000000, 1.224646799147353700E-16 ) ) ;
#179 = CALENDAR_DATE ( 2021, 25, 11 ) ;
#180 = DIRECTION ( 'NONE',  ( -4.275831445896958607E-31, -1.000000000000000000, -1.224646799147353207E-16 ) ) ;
#181 = CC_DESIGN_PERSON_AND_ORGANIZATION_ASSIGNMENT ( #156, #16, ( #104 ) ) ;
#182 = DATE_TIME_ROLE ( 'classification_date' ) ;
#183 = FACE_OUTER_BOUND ( 'NONE', #60, .T. ) ;
#184 = COORDINATED_UNIVERSAL_TIME_OFFSET ( 1, 0, .AHEAD. ) ;
#185 = CARTESIAN_POINT ( 'NONE',  ( -2.129327804681057155E-31, 0.05000000000000000278, -6.098637220230962441E-17 ) ) ;
#186 = EDGE_CURVE ( 'NONE', #29, #29, #98, .T. ) ;
#187 = DATE_TIME_ROLE ( 'creation_date' ) ;
#188 = COORDINATED_UNIVERSAL_TIME_OFFSET ( 1, 0, .AHEAD. ) ;
#189 = PLANE ( 'NONE',  #27 ) ;
#190 = APPROVAL ( #43, 'UNSPECIFIED' ) ;
#191 = EDGE_LOOP ( 'NONE', ( #131 ) ) ;
#192 = DIRECTION ( 'NONE',  ( -3.491481338843133355E-15, 1.224646799147353207E-16, -1.000000000000000000 ) ) ;
#193 = EDGE_LOOP ( 'NONE', ( #100 ) ) ;
#194 = DIRECTION ( 'NONE',  ( -5.135813185032644414E-31, -1.000000000000000000, -1.445602896647343601E-16 ) ) ;
#195 = VERTEX_POINT ( 'NONE', #52 ) ;
#196 = APPROVAL_PERSON_ORGANIZATION ( #57, #190, #42 ) ;
#197 = PERSON_AND_ORGANIZATION_ROLE ( 'creator' ) ;
#198 = APPROVAL ( #14, 'UNSPECIFIED' ) ;
#199 = CIRCLE ( 'NONE', #83, 1.100000000000000089 ) ;
#200 = LOCAL_TIME ( 14, 42, 37.00000000000000000, #203 ) ;
#201 = PERSON_AND_ORGANIZATION ( #77, #155 ) ;
#202 = ADVANCED_FACE ( 'NONE', ( #11, #10 ), #79, .T. ) ;
#203 = COORDINATED_UNIVERSAL_TIME_OFFSET ( 1, 0, .AHEAD. ) ;
ENDSEC;
END-ISO-10303-21;
