ISO-10303-21;
HEADER;
FILE_DESCRIPTION (( 'STEP AP203' ),
    '1' );
FILE_NAME ('961323.step',
    '2021-11-25T13:47:04',
    ( '' ),
    ( '' ),
    'SwSTEP 2.0',
    'SolidWorks 2019',
    '' );
FILE_SCHEMA (( 'CONFIG_CONTROL_DESIGN' ));
ENDSEC;

DATA;
#1 = AXIS2_PLACEMENT_3D ( 'NONE', #142, #157, #62 ) ;
#2 = LOCAL_TIME ( 14, 47, 4.000000000000000000, #193 ) ;
#3 = PERSON_AND_ORGANIZATION ( #45, #93 ) ;
#4 = DATE_AND_TIME ( #109, #112 ) ;
#5 = FACE_OUTER_BOUND ( 'NONE', #79, .T. ) ;
#6 = AXIS2_PLACEMENT_3D ( 'NONE', #9, #122, #118 ) ;
#7 = APPROVAL_DATE_TIME ( #155, #186 ) ;
#8 = DIRECTION ( 'NONE',  ( 4.275831445896958607E-31, 1.000000000000000000, 1.224646799147353207E-16 ) ) ;
#9 = CARTESIAN_POINT ( 'NONE',  ( 2.973316344006190894E-15, 1.124819836996389922E-32, 0.8515916470547051365 ) ) ;
#10 = CONICAL_SURFACE ( 'NONE', #85, 1.499999999999995559, 1.047197551196592746 ) ;
#11 = PERSON_AND_ORGANIZATION_ROLE ( 'design_owner' ) ;
#12 = CC_DESIGN_SECURITY_CLASSIFICATION ( #72, ( #90 ) ) ;
#13 = CC_DESIGN_PERSON_AND_ORGANIZATION_ASSIGNMENT ( #3, #73, ( #90 ) ) ;
#14 = CARTESIAN_POINT ( 'NONE',  ( 2.973316344006190499E-15, -1.042898984746167025E-16, 0.8515916470547050254 ) ) ;
#15 = DATE_AND_TIME ( #32, #190 ) ;
#16 = MANIFOLD_SOLID_BREP ( 'Corps-Déplacer/Copier1[1]', #110 ) ;
#17 = AXIS2_PLACEMENT_3D ( 'NONE', #191, #18, #52 ) ;
#18 = DIRECTION ( 'NONE',  ( -3.491481338843133355E-15, 1.224646799147353207E-16, -1.000000000000000000 ) ) ;
#19 = ADVANCED_FACE ( 'NONE', ( #182 ), #158, .F. ) ;
#20 = AXIS2_PLACEMENT_3D ( 'NONE', #175, #181, #154 ) ;
#21 = DIRECTION ( 'NONE',  ( -3.491481338843133355E-15, 1.224646799147353207E-16, -1.000000000000000000 ) ) ;
#22 = CYLINDRICAL_SURFACE ( 'NONE', #31, 1.499999999999997780 ) ;
#23 =( NAMED_UNIT ( * ) PLANE_ANGLE_UNIT ( ) SI_UNIT ( $, .RADIAN. ) );
#24 = CARTESIAN_POINT ( 'NONE',  ( -1.419551869787371291E-31, 0.02499999999999999792, -4.065758146820641628E-17 ) ) ;
#25 = PERSON_AND_ORGANIZATION_ROLE ( 'creator' ) ;
#26 = CARTESIAN_POINT ( 'NONE',  ( 1.326762908760390423E-13, 8.248678804640148420E-33, 38.00000000000000000 ) ) ;
#27 = CARTESIAN_POINT ( 'NONE',  ( 2.973316344006191288E-15, 1.499999999999995559, 0.8515916470547052475 ) ) ;
#28 = EDGE_CURVE ( 'NONE', #180, #180, #128, .T. ) ;
#29 = PERSON_AND_ORGANIZATION ( #45, #93 ) ;
#30 = DIRECTION ( 'NONE',  ( 1.000000000000000000, 0.0000000000000000000, 0.0000000000000000000 ) ) ;
#31 = AXIS2_PLACEMENT_3D ( 'NONE', #37, #133, #152 ) ;
#32 = CALENDAR_DATE ( 2021, 25, 11 ) ;
#33 = APPLICATION_CONTEXT ( 'configuration controlled 3d designs of mechanical parts and assemblies' ) ;
#34 = ADVANCED_BREP_SHAPE_REPRESENTATION ( '961323', ( #16, #151, #165 ), #67 ) ;
#35 = LOCAL_TIME ( 14, 47, 4.000000000000000000, #66 ) ;
#36 = ADVANCED_FACE ( 'NONE', ( #166, #5 ), #10, .T. ) ;
#37 = CARTESIAN_POINT ( 'NONE',  ( 0.0000000000000000000, 0.0000000000000000000, 0.0000000000000000000 ) ) ;
#38 = ORIENTED_EDGE ( 'NONE', *, *, #131, .F. ) ;
#39 = ORIENTED_EDGE ( 'NONE', *, *, #28, .T. ) ;
#40 = SHAPE_DEFINITION_REPRESENTATION ( #125, #34 ) ;
#41 = CC_DESIGN_PERSON_AND_ORGANIZATION_ASSIGNMENT ( #29, #103, ( #90 ) ) ;
#42 = DIRECTION ( 'NONE',  ( 3.491481338843133355E-15, -1.224646799147353207E-16, 1.000000000000000000 ) ) ;
#43 = ORIENTED_EDGE ( 'NONE', *, *, #185, .F. ) ;
#44 =( LENGTH_UNIT ( ) NAMED_UNIT ( * ) SI_UNIT ( .MILLI., .METRE. ) );
#45 = PERSON ( 'UNSPECIFIED', 'UNSPECIFIED', 'UNSPECIFIED', ('UNSPECIFIED'), ('UNSPECIFIED'), ('UNSPECIFIED') ) ;
#46 = EDGE_LOOP ( 'NONE', ( #39 ) ) ;
#47 = VERTEX_POINT ( 'NONE', #27 ) ;
#48 = DATE_AND_TIME ( #95, #35 ) ;
#49 = APPROVAL_PERSON_ORGANIZATION ( #147, #91, #132 ) ;
#50 = PRODUCT_DEFINITION ( 'UNKNOWN', '', #90, #162 ) ;
#51 = CC_DESIGN_APPROVAL ( #91, ( #72 ) ) ;
#52 = DIRECTION ( 'NONE',  ( 0.0000000000000000000, 1.000000000000000000, 0.0000000000000000000 ) ) ;
#53 = PLANE ( 'NONE',  #20 ) ;
#54 = EDGE_LOOP ( 'NONE', ( #101 ) ) ;
#55 = LOCAL_TIME ( 14, 47, 4.000000000000000000, #196 ) ;
#56 = PRODUCT_RELATED_PRODUCT_CATEGORY ( 'detail', '', ( #172 ) ) ;
#57 = CARTESIAN_POINT ( 'NONE',  ( 1.312796983405018142E-13, -4.604671964794047724E-15, 37.60000000000000142 ) ) ;
#58 = ORIENTED_EDGE ( 'NONE', *, *, #131, .T. ) ;
#59 = VERTEX_POINT ( 'NONE', #106 ) ;
#60 = FACE_OUTER_BOUND ( 'NONE', #117, .T. ) ;
#61 = ORIENTED_EDGE ( 'NONE', *, *, #139, .T. ) ;
#62 = DIRECTION ( 'NONE',  ( 5.135813185032644414E-31, 1.000000000000000000, 1.445602896647343601E-16 ) ) ;
#63 = FACE_OUTER_BOUND ( 'NONE', #156, .T. ) ;
#64 = MECHANICAL_CONTEXT ( 'NONE', #33, 'mechanical' ) ;
#65 = PERSON_AND_ORGANIZATION ( #45, #93 ) ;
#66 = COORDINATED_UNIVERSAL_TIME_OFFSET ( 1, 0, .AHEAD. ) ;
#67 =( GEOMETRIC_REPRESENTATION_CONTEXT ( 3 ) GLOBAL_UNCERTAINTY_ASSIGNED_CONTEXT ( ( #145 ) ) GLOBAL_UNIT_ASSIGNED_CONTEXT ( ( #44, #23, #202 ) ) REPRESENTATION_CONTEXT ( 'NONE', 'WORKASPACE' ) );
#68 = CC_DESIGN_APPROVAL ( #186, ( #50 ) ) ;
#69 = APPROVAL_STATUS ( 'not_yet_approved' ) ;
#70 = CC_DESIGN_DATE_AND_TIME_ASSIGNMENT ( #15, #84, ( #50 ) ) ;
#71 = CARTESIAN_POINT ( 'NONE',  ( -1.526447655934795081E-31, 5.354057646276638211E-33, -4.371919846607479868E-17 ) ) ;
#72 = SECURITY_CLASSIFICATION ( '', '', #161 ) ;
#73 = PERSON_AND_ORGANIZATION_ROLE ( 'design_supplier' ) ;
#74 = CC_DESIGN_DATE_AND_TIME_ASSIGNMENT ( #4, #150, ( #72 ) ) ;
#75 = PERSON_AND_ORGANIZATION ( #45, #93 ) ;
#76 = CIRCLE ( 'NONE', #94, 1.500000000000000222 ) ;
#77 = APPROVAL_DATE_TIME ( #48, #104 ) ;
#78 = CARTESIAN_POINT ( 'NONE',  ( 1.326762908760390423E-13, 1.099999999999995426, 38.00000000000000000 ) ) ;
#79 = EDGE_LOOP ( 'NONE', ( #198 ) ) ;
#80 = PLANE ( 'NONE',  #176 ) ;
#81 = CARTESIAN_POINT ( 'NONE',  ( 0.0000000000000000000, 0.0000000000000000000, 0.0000000000000000000 ) ) ;
#82 = DIRECTION ( 'NONE',  ( 3.491481338843133355E-15, -1.224646799147353207E-16, 1.000000000000000000 ) ) ;
#83 = APPROVAL_PERSON_ORGANIZATION ( #188, #104, #126 ) ;
#84 = DATE_TIME_ROLE ( 'creation_date' ) ;
#85 = AXIS2_PLACEMENT_3D ( 'NONE', #115, #42, #96 ) ;
#86 = EDGE_LOOP ( 'NONE', ( #61 ) ) ;
#87 = APPLICATION_PROTOCOL_DEFINITION ( 'international standard', 'config_control_design', 1994, #130 ) ;
#88 = CC_DESIGN_APPROVAL ( #104, ( #90 ) ) ;
#89 = DIRECTION ( 'NONE',  ( -3.491481338843133355E-15, 1.224646799147353207E-16, -1.000000000000000000 ) ) ;
#90 = PRODUCT_DEFINITION_FORMATION_WITH_SPECIFIED_SOURCE ( 'ANY', '', #172, .NOT_KNOWN. ) ;
#91 = APPROVAL ( #69, 'UNSPECIFIED' ) ;
#92 = APPROVAL_STATUS ( 'not_yet_approved' ) ;
#93 = ORGANIZATION ( 'UNSPECIFIED', 'UNSPECIFIED', '' ) ;
#94 = AXIS2_PLACEMENT_3D ( 'NONE', #57, #197, #116 ) ;
#95 = CALENDAR_DATE ( 2021, 25, 11 ) ;
#96 = DIRECTION ( 'NONE',  ( -5.135813185032644414E-31, -1.000000000000000000, -1.445602896647343601E-16 ) ) ;
#97 = FACE_OUTER_BOUND ( 'NONE', #195, .T. ) ;
#98 = ORIENTED_EDGE ( 'NONE', *, *, #160, .T. ) ;
#99 = FACE_OUTER_BOUND ( 'NONE', #177, .T. ) ;
#100 = FACE_BOUND ( 'NONE', #46, .T. ) ;
#101 = ORIENTED_EDGE ( 'NONE', *, *, #160, .F. ) ;
#102 = CALENDAR_DATE ( 2021, 25, 11 ) ;
#103 = PERSON_AND_ORGANIZATION_ROLE ( 'creator' ) ;
#104 = APPROVAL ( #92, 'UNSPECIFIED' ) ;
#105 = APPROVAL_STATUS ( 'not_yet_approved' ) ;
#106 = CARTESIAN_POINT ( 'NONE',  ( 2.973316344006191288E-15, 1.499999999999995559, 0.8515916470547052475 ) ) ;
#107 = CARTESIAN_POINT ( 'NONE',  ( -7.632238279673975405E-32, 2.677028823138319106E-33, -2.185959923303739934E-17 ) ) ;
#108 = CIRCLE ( 'NONE', #134, 0.02499999999999999792 ) ;
#109 = CALENDAR_DATE ( 2021, 25, 11 ) ;
#110 = CLOSED_SHELL ( 'NONE', ( #203, #127, #148, #19 ) ) ;
#111 = ADVANCED_FACE ( 'NONE', ( #99 ), #53, .T. ) ;
#112 = LOCAL_TIME ( 14, 47, 4.000000000000000000, #187 ) ;
#113 = DIRECTION ( 'NONE',  ( -3.491481338843133355E-15, 1.224646799147353207E-16, -1.000000000000000000 ) ) ;
#114 = APPROVAL_DATE_TIME ( #129, #91 ) ;
#115 = CARTESIAN_POINT ( 'NONE',  ( 2.973316344006190499E-15, -1.042898984746167025E-16, 0.8515916470547050254 ) ) ;
#116 = DIRECTION ( 'NONE',  ( 0.0000000000000000000, 1.000000000000000000, 0.0000000000000000000 ) ) ;
#117 = EDGE_LOOP ( 'NONE', ( #38 ) ) ;
#118 = DIRECTION ( 'NONE',  ( -4.275831445896958607E-31, -1.000000000000000000, -1.224646799147353207E-16 ) ) ;
#119 = DIRECTION ( 'NONE',  ( -3.491481338843133355E-15, 1.224646799147353207E-16, -1.000000000000000000 ) ) ;
#120 = CC_DESIGN_PERSON_AND_ORGANIZATION_ASSIGNMENT ( #65, #143, ( #72 ) ) ;
#121 = EDGE_LOOP ( 'NONE', ( #192 ) ) ;
#122 = DIRECTION ( 'NONE',  ( 3.491481338843133355E-15, -1.224646799147353207E-16, 1.000000000000000000 ) ) ;
#123 = CARTESIAN_POINT ( 'NONE',  ( 1.312796983405018142E-13, 1.499999999999995781, 37.60000000000000142 ) ) ;
#124 = CLOSED_SHELL ( 'NONE', ( #167, #36, #111 ) ) ;
#125 = PRODUCT_DEFINITION_SHAPE ( 'NONE', 'NONE',  #50 ) ;
#126 = APPROVAL_ROLE ( '' ) ;
#127 = ADVANCED_FACE ( 'NONE', ( #137, #97 ), #22, .T. ) ;
#128 = CIRCLE ( 'NONE', #17, 1.100000000000000089 ) ;
#129 = DATE_AND_TIME ( #136, #2 ) ;
#130 = APPLICATION_CONTEXT ( 'configuration controlled 3d designs of mechanical parts and assemblies' ) ;
#131 = EDGE_CURVE ( 'NONE', #171, #171, #76, .T. ) ;
#132 = APPROVAL_ROLE ( '' ) ;
#133 = DIRECTION ( 'NONE',  ( -3.491481338843133355E-15, 1.224646799147353207E-16, -1.000000000000000000 ) ) ;
#134 = AXIS2_PLACEMENT_3D ( 'NONE', #71, #21, #179 ) ;
#135 = APPROVAL_ROLE ( '' ) ;
#136 = CALENDAR_DATE ( 2021, 25, 11 ) ;
#137 = FACE_OUTER_BOUND ( 'NONE', #54, .T. ) ;
#138 = PERSON_AND_ORGANIZATION ( #45, #93 ) ;
#139 = EDGE_CURVE ( 'NONE', #183, #183, #108, .T. ) ;
#140 = DIRECTION ( 'NONE',  ( 0.0000000000000000000, 0.0000000000000000000, 1.000000000000000000 ) ) ;
#141 = CIRCLE ( 'NONE', #144, 1.499999999999995559 ) ;
#142 = CARTESIAN_POINT ( 'NONE',  ( 2.973316344006190499E-15, -1.042898984746167025E-16, 0.8515916470547050254 ) ) ;
#143 = PERSON_AND_ORGANIZATION_ROLE ( 'classification_officer' ) ;
#144 = AXIS2_PLACEMENT_3D ( 'NONE', #14, #119, #170 ) ;
#145 = UNCERTAINTY_MEASURE_WITH_UNIT (LENGTH_MEASURE( 1.000000000000000082E-05 ), #44, 'distance_accuracy_value', 'NONE');
#146 = CIRCLE ( 'NONE', #1, 1.499999999999995559 ) ;
#147 = PERSON_AND_ORGANIZATION ( #45, #93 ) ;
#148 = ADVANCED_FACE ( 'NONE', ( #60, #100 ), #163, .T. ) ;
#149 = CARTESIAN_POINT ( 'NONE',  ( 1.326762908760390423E-13, -4.653657836759941941E-15, 38.00000000000000000 ) ) ;
#150 = DATE_TIME_ROLE ( 'classification_date' ) ;
#151 = MANIFOLD_SOLID_BREP ( 'Corps-Déplacer/Copier1[2]', #124 ) ;
#152 = DIRECTION ( 'NONE',  ( 4.275831445896959482E-31, 1.000000000000000000, 1.224646799147353207E-16 ) ) ;
#153 = ORIENTED_EDGE ( 'NONE', *, *, #139, .F. ) ;
#154 = DIRECTION ( 'NONE',  ( -4.275831445896958607E-31, -1.000000000000000000, -1.224646799147353207E-16 ) ) ;
#155 = DATE_AND_TIME ( #102, #55 ) ;
#156 = EDGE_LOOP ( 'NONE', ( #98 ) ) ;
#157 = DIRECTION ( 'NONE',  ( -3.491481338843133355E-15, 1.224646799147353207E-16, -1.000000000000000000 ) ) ;
#158 = PLANE ( 'NONE',  #194 ) ;
#159 = PERSON_AND_ORGANIZATION ( #45, #93 ) ;
#160 = EDGE_CURVE ( 'NONE', #47, #47, #141, .T. ) ;
#161 = SECURITY_CLASSIFICATION_LEVEL ( 'unclassified' ) ;
#162 = DESIGN_CONTEXT ( 'detailed design', #130, 'design' ) ;
#163 = CONICAL_SURFACE ( 'NONE', #201, 1.100000000000000089, 0.7853981633974516097 ) ;
#164 = CC_DESIGN_PERSON_AND_ORGANIZATION_ASSIGNMENT ( #159, #11, ( #172 ) ) ;
#165 = AXIS2_PLACEMENT_3D ( 'NONE', #81, #140, #30 ) ;
#166 = FACE_BOUND ( 'NONE', #168, .T. ) ;
#167 = ADVANCED_FACE ( 'NONE', ( #184 ), #80, .F. ) ;
#168 = EDGE_LOOP ( 'NONE', ( #153 ) ) ;
#169 = PLANE ( 'NONE',  #6 ) ;
#170 = DIRECTION ( 'NONE',  ( 5.135813185032644414E-31, 1.000000000000000000, 1.445602896647343601E-16 ) ) ;
#171 = VERTEX_POINT ( 'NONE', #123 ) ;
#172 = PRODUCT ( '961323', '961323', '', ( #64 ) ) ;
#173 = APPROVAL_PERSON_ORGANIZATION ( #75, #186, #135 ) ;
#174 = DIRECTION ( 'NONE',  ( 0.0000000000000000000, 1.000000000000000000, 0.0000000000000000000 ) ) ;
#175 = CARTESIAN_POINT ( 'NONE',  ( 2.973316344006190894E-15, 1.124819836996389922E-32, 0.8515916470547051365 ) ) ;
#176 = AXIS2_PLACEMENT_3D ( 'NONE', #107, #82, #200 ) ;
#177 = EDGE_LOOP ( 'NONE', ( #43 ) ) ;
#178 = APPLICATION_PROTOCOL_DEFINITION ( 'international standard', 'config_control_design', 1994, #33 ) ;
#179 = DIRECTION ( 'NONE',  ( 4.275831445896955979E-31, 1.000000000000000000, 1.224646799147353947E-16 ) ) ;
#180 = VERTEX_POINT ( 'NONE', #78 ) ;
#181 = DIRECTION ( 'NONE',  ( 3.491481338843133355E-15, -1.224646799147353207E-16, 1.000000000000000000 ) ) ;
#182 = FACE_OUTER_BOUND ( 'NONE', #121, .T. ) ;
#183 = VERTEX_POINT ( 'NONE', #24 ) ;
#184 = FACE_OUTER_BOUND ( 'NONE', #86, .T. ) ;
#185 = EDGE_CURVE ( 'NONE', #59, #59, #146, .T. ) ;
#186 = APPROVAL ( #105, 'UNSPECIFIED' ) ;
#187 = COORDINATED_UNIVERSAL_TIME_OFFSET ( 1, 0, .AHEAD. ) ;
#188 = PERSON_AND_ORGANIZATION ( #45, #93 ) ;
#189 = CC_DESIGN_PERSON_AND_ORGANIZATION_ASSIGNMENT ( #138, #25, ( #50 ) ) ;
#190 = LOCAL_TIME ( 14, 47, 4.000000000000000000, #199 ) ;
#191 = CARTESIAN_POINT ( 'NONE',  ( 1.326762908760390423E-13, -4.653657836759941941E-15, 38.00000000000000000 ) ) ;
#192 = ORIENTED_EDGE ( 'NONE', *, *, #28, .F. ) ;
#193 = COORDINATED_UNIVERSAL_TIME_OFFSET ( 1, 0, .AHEAD. ) ;
#194 = AXIS2_PLACEMENT_3D ( 'NONE', #26, #89, #8 ) ;
#195 = EDGE_LOOP ( 'NONE', ( #58 ) ) ;
#196 = COORDINATED_UNIVERSAL_TIME_OFFSET ( 1, 0, .AHEAD. ) ;
#197 = DIRECTION ( 'NONE',  ( -3.491481338843133355E-15, 1.224646799147353207E-16, -1.000000000000000000 ) ) ;
#198 = ORIENTED_EDGE ( 'NONE', *, *, #185, .T. ) ;
#199 = COORDINATED_UNIVERSAL_TIME_OFFSET ( 1, 0, .AHEAD. ) ;
#200 = DIRECTION ( 'NONE',  ( -4.275831445896958607E-31, -1.000000000000000000, -1.224646799147353207E-16 ) ) ;
#201 = AXIS2_PLACEMENT_3D ( 'NONE', #149, #113, #174 ) ;
#202 =( NAMED_UNIT ( * ) SI_UNIT ( $, .STERADIAN. ) SOLID_ANGLE_UNIT ( ) );
#203 = ADVANCED_FACE ( 'NONE', ( #63 ), #169, .F. ) ;
ENDSEC;
END-ISO-10303-21;
