ISO-10303-21;
HEADER;
FILE_DESCRIPTION (( 'STEP AP203' ),
    '1' );
FILE_NAME ('961322.step',
    '2021-11-25T13:42:36',
    ( '' ),
    ( '' ),
    'SwSTEP 2.0',
    'SolidWorks 2019',
    '' );
FILE_SCHEMA (( 'CONFIG_CONTROL_DESIGN' ));
ENDSEC;

DATA;
#1 = DIRECTION ( 'NONE',  ( -3.491481338843133355E-15, 1.224646799147353207E-16, -1.000000000000000000 ) ) ;
#2 = PLANE ( 'NONE',  #18 ) ;
#3 = CC_DESIGN_APPROVAL ( #143, ( #144 ) ) ;
#4 = DIRECTION ( 'NONE',  ( -3.491481338843133355E-15, 1.224646799147353207E-16, -1.000000000000000000 ) ) ;
#5 =( GEOMETRIC_REPRESENTATION_CONTEXT ( 3 ) GLOBAL_UNCERTAINTY_ASSIGNED_CONTEXT ( ( #180 ) ) GLOBAL_UNIT_ASSIGNED_CONTEXT ( ( #129, #114, #39 ) ) REPRESENTATION_CONTEXT ( 'NONE', 'WORKASPACE' ) );
#6 = ADVANCED_FACE ( 'NONE', ( #149, #199 ), #59, .T. ) ;
#7 = DIRECTION ( 'NONE',  ( -3.491481338843133355E-15, 1.224646799147353207E-16, -1.000000000000000000 ) ) ;
#8 = ORIENTED_EDGE ( 'NONE', *, *, #187, .F. ) ;
#9 = APPROVAL_STATUS ( 'not_yet_approved' ) ;
#10 = PRODUCT_DEFINITION_SHAPE ( 'NONE', 'NONE',  #179 ) ;
#11 = CALENDAR_DATE ( 2021, 25, 11 ) ;
#12 = ORIENTED_EDGE ( 'NONE', *, *, #97, .F. ) ;
#13 = DIRECTION ( 'NONE',  ( 0.0000000000000000000, 0.0000000000000000000, 1.000000000000000000 ) ) ;
#14 = DIRECTION ( 'NONE',  ( -3.491481338843133355E-15, 1.224646799147353207E-16, -1.000000000000000000 ) ) ;
#15 = AXIS2_PLACEMENT_3D ( 'NONE', #132, #14, #189 ) ;
#16 = VERTEX_POINT ( 'NONE', #79 ) ;
#17 = DIRECTION ( 'NONE',  ( -3.491481338843133355E-15, 1.224646799147353207E-16, -1.000000000000000000 ) ) ;
#18 = AXIS2_PLACEMENT_3D ( 'NONE', #52, #156, #117 ) ;
#19 = PLANE ( 'NONE',  #36 ) ;
#20 = AXIS2_PLACEMENT_3D ( 'NONE', #63, #17, #81 ) ;
#21 = FACE_OUTER_BOUND ( 'NONE', #121, .T. ) ;
#22 = DIRECTION ( 'NONE',  ( 3.491481338843133355E-15, -1.224646799147353207E-16, 1.000000000000000000 ) ) ;
#23 = ADVANCED_FACE ( 'NONE', ( #40 ), #105, .F. ) ;
#24 = ORIENTED_EDGE ( 'NONE', *, *, #97, .T. ) ;
#25 = EDGE_LOOP ( 'NONE', ( #201 ) ) ;
#26 = CALENDAR_DATE ( 2021, 25, 11 ) ;
#27 = EDGE_LOOP ( 'NONE', ( #24 ) ) ;
#28 = DATE_AND_TIME ( #153, #151 ) ;
#29 = EDGE_LOOP ( 'NONE', ( #44 ) ) ;
#30 = APPROVAL_DATE_TIME ( #43, #118 ) ;
#31 = DIRECTION ( 'NONE',  ( 4.275831445896955979E-31, 1.000000000000000000, 1.224646799147353947E-16 ) ) ;
#32 = CONICAL_SURFACE ( 'NONE', #37, 1.100000000000000089, 0.7853981633974516097 ) ;
#33 = DIRECTION ( 'NONE',  ( 0.0000000000000000000, 1.000000000000000000, 0.0000000000000000000 ) ) ;
#34 = CARTESIAN_POINT ( 'NONE',  ( 1.326762908760390423E-13, -4.653657836759941941E-15, 38.00000000000000000 ) ) ;
#35 = CARTESIAN_POINT ( 'NONE',  ( -1.360403875212897396E-31, 0.02499999999999999792, -3.896351557369781560E-17 ) ) ;
#36 = AXIS2_PLACEMENT_3D ( 'NONE', #175, #83, #165 ) ;
#37 = AXIS2_PLACEMENT_3D ( 'NONE', #34, #128, #33 ) ;
#38 = APPROVAL ( #168, 'UNSPECIFIED' ) ;
#39 =( NAMED_UNIT ( * ) SI_UNIT ( $, .STERADIAN. ) SOLID_ANGLE_UNIT ( ) );
#40 = FACE_OUTER_BOUND ( 'NONE', #27, .T. ) ;
#41 = EDGE_LOOP ( 'NONE', ( #181 ) ) ;
#42 = ORGANIZATION ( 'UNSPECIFIED', 'UNSPECIFIED', '' ) ;
#43 = DATE_AND_TIME ( #138, #130 ) ;
#44 = ORIENTED_EDGE ( 'NONE', *, *, #191, .F. ) ;
#45 = DATE_AND_TIME ( #11, #93 ) ;
#46 = EDGE_LOOP ( 'NONE', ( #8 ) ) ;
#47 = CARTESIAN_POINT ( 'NONE',  ( 0.0000000000000000000, 0.0000000000000000000, 0.0000000000000000000 ) ) ;
#48 = MANIFOLD_SOLID_BREP ( 'Corps-Déplacer/Copier1[2]', #62 ) ;
#49 = PERSON_AND_ORGANIZATION_ROLE ( 'creator' ) ;
#50 = AXIS2_PLACEMENT_3D ( 'NONE', #85, #7, #31 ) ;
#51 = FACE_BOUND ( 'NONE', #41, .T. ) ;
#52 = CARTESIAN_POINT ( 'NONE',  ( 2.973316344006191683E-15, 1.124819836996390058E-32, 0.8515916470547053585 ) ) ;
#53 = DIRECTION ( 'NONE',  ( 3.491481338843133355E-15, -1.224646799147353207E-16, 1.000000000000000000 ) ) ;
#54 = CC_DESIGN_PERSON_AND_ORGANIZATION_ASSIGNMENT ( #198, #171, ( #197 ) ) ;
#55 = SECURITY_CLASSIFICATION ( '', '', #77 ) ;
#56 = DIRECTION ( 'NONE',  ( 1.000000000000000000, 0.0000000000000000000, 0.0000000000000000000 ) ) ;
#57 = ADVANCED_FACE ( 'NONE', ( #161 ), #19, .F. ) ;
#58 = CC_DESIGN_SECURITY_CLASSIFICATION ( #55, ( #144 ) ) ;
#59 = CYLINDRICAL_SURFACE ( 'NONE', #172, 1.499999999999997780 ) ;
#60 = DIRECTION ( 'NONE',  ( 4.275831445896959482E-31, 1.000000000000000000, 1.224646799147353207E-16 ) ) ;
#61 = COORDINATED_UNIVERSAL_TIME_OFFSET ( 1, 0, .AHEAD. ) ;
#62 = CLOSED_SHELL ( 'NONE', ( #23, #69, #196 ) ) ;
#63 = CARTESIAN_POINT ( 'NONE',  ( 1.326762908760390423E-13, 8.248678804640148420E-33, 38.00000000000000000 ) ) ;
#64 = CC_DESIGN_PERSON_AND_ORGANIZATION_ASSIGNMENT ( #139, #112, ( #55 ) ) ;
#65 = DIRECTION ( 'NONE',  ( 0.0000000000000000000, 1.000000000000000000, 0.0000000000000000000 ) ) ;
#66 = VERTEX_POINT ( 'NONE', #101 ) ;
#67 = PERSON ( 'UNSPECIFIED', 'UNSPECIFIED', 'UNSPECIFIED', ('UNSPECIFIED'), ('UNSPECIFIED'), ('UNSPECIFIED') ) ;
#68 = CARTESIAN_POINT ( 'NONE',  ( 2.973316344006191288E-15, -1.042898984746167271E-16, 0.8515916470547052475 ) ) ;
#69 = ADVANCED_FACE ( 'NONE', ( #103, #21 ), #164, .T. ) ;
#70 = CC_DESIGN_APPROVAL ( #118, ( #179 ) ) ;
#71 = AXIS2_PLACEMENT_3D ( 'NONE', #47, #13, #56 ) ;
#72 = ORIENTED_EDGE ( 'NONE', *, *, #191, .T. ) ;
#73 = PERSON_AND_ORGANIZATION ( #67, #42 ) ;
#74 = CC_DESIGN_DATE_AND_TIME_ASSIGNMENT ( #203, #110, ( #55 ) ) ;
#75 = CIRCLE ( 'NONE', #188, 1.100000000000000089 ) ;
#76 = PERSON_AND_ORGANIZATION ( #67, #42 ) ;
#77 = SECURITY_CLASSIFICATION_LEVEL ( 'unclassified' ) ;
#78 = CARTESIAN_POINT ( 'NONE',  ( 1.326762908760390423E-13, 1.099999999999995426, 38.00000000000000000 ) ) ;
#79 = CARTESIAN_POINT ( 'NONE',  ( 1.312796983405018142E-13, 1.499999999999995781, 37.60000000000000142 ) ) ;
#80 = CC_DESIGN_DATE_AND_TIME_ASSIGNMENT ( #28, #95, ( #179 ) ) ;
#81 = DIRECTION ( 'NONE',  ( 4.275831445896958607E-31, 1.000000000000000000, 1.224646799147353207E-16 ) ) ;
#82 = DIRECTION ( 'NONE',  ( -3.491481338843133355E-15, 1.224646799147353207E-16, -1.000000000000000000 ) ) ;
#83 = DIRECTION ( 'NONE',  ( 3.491481338843133355E-15, -1.224646799147353207E-16, 1.000000000000000000 ) ) ;
#84 = DESIGN_CONTEXT ( 'detailed design', #123, 'design' ) ;
#85 = CARTESIAN_POINT ( 'NONE',  ( -1.467299661360321405E-31, 5.146594408751171923E-33, -4.202513257156619800E-17 ) ) ;
#86 = AXIS2_PLACEMENT_3D ( 'NONE', #68, #53, #163 ) ;
#87 = EDGE_LOOP ( 'NONE', ( #108 ) ) ;
#88 = SHAPE_DEFINITION_REPRESENTATION ( #10, #145 ) ;
#89 = APPLICATION_CONTEXT ( 'configuration controlled 3d designs of mechanical parts and assemblies' ) ;
#90 = EDGE_LOOP ( 'NONE', ( #12 ) ) ;
#91 = COORDINATED_UNIVERSAL_TIME_OFFSET ( 1, 0, .AHEAD. ) ;
#92 = DIRECTION ( 'NONE',  ( -3.491481338843133355E-15, 1.224646799147353207E-16, -1.000000000000000000 ) ) ;
#93 = LOCAL_TIME ( 14, 42, 36.00000000000000000, #61 ) ;
#94 = PERSON_AND_ORGANIZATION ( #67, #42 ) ;
#95 = DATE_TIME_ROLE ( 'creation_date' ) ;
#96 = FACE_OUTER_BOUND ( 'NONE', #25, .T. ) ;
#97 = EDGE_CURVE ( 'NONE', #174, #174, #167, .T. ) ;
#98 = CARTESIAN_POINT ( 'NONE',  ( 2.973316344006192077E-15, 1.499999999999995781, 0.8515916470547054695 ) ) ;
#99 = AXIS2_PLACEMENT_3D ( 'NONE', #190, #82, #186 ) ;
#100 = CARTESIAN_POINT ( 'NONE',  ( 2.973316344006191288E-15, -1.042898984746167271E-16, 0.8515916470547052475 ) ) ;
#101 = CARTESIAN_POINT ( 'NONE',  ( 2.973316344006192077E-15, 1.499999999999995781, 0.8515916470547054695 ) ) ;
#102 = CC_DESIGN_APPROVAL ( #38, ( #55 ) ) ;
#103 = FACE_BOUND ( 'NONE', #90, .T. ) ;
#104 = EDGE_CURVE ( 'NONE', #66, #66, #142, .T. ) ;
#105 = PLANE ( 'NONE',  #111 ) ;
#106 = CIRCLE ( 'NONE', #15, 1.500000000000000222 ) ;
#107 = PERSON_AND_ORGANIZATION_ROLE ( 'design_supplier' ) ;
#108 = ORIENTED_EDGE ( 'NONE', *, *, #155, .F. ) ;
#109 = CALENDAR_DATE ( 2021, 25, 11 ) ;
#110 = DATE_TIME_ROLE ( 'classification_date' ) ;
#111 = AXIS2_PLACEMENT_3D ( 'NONE', #166, #22, #192 ) ;
#112 = PERSON_AND_ORGANIZATION_ROLE ( 'classification_officer' ) ;
#113 = CC_DESIGN_PERSON_AND_ORGANIZATION_ASSIGNMENT ( #126, #107, ( #144 ) ) ;
#114 =( NAMED_UNIT ( * ) PLANE_ANGLE_UNIT ( ) SI_UNIT ( $, .RADIAN. ) );
#115 = CIRCLE ( 'NONE', #135, 1.499999999999995781 ) ;
#116 = DIRECTION ( 'NONE',  ( 5.135813185032643538E-31, 1.000000000000000000, 1.445602896647343354E-16 ) ) ;
#117 = DIRECTION ( 'NONE',  ( -4.275831445896958607E-31, -1.000000000000000000, -1.224646799147353207E-16 ) ) ;
#118 = APPROVAL ( #182, 'UNSPECIFIED' ) ;
#119 = LOCAL_TIME ( 14, 42, 36.00000000000000000, #125 ) ;
#120 = COORDINATED_UNIVERSAL_TIME_OFFSET ( 1, 0, .AHEAD. ) ;
#121 = EDGE_LOOP ( 'NONE', ( #137 ) ) ;
#122 = MECHANICAL_CONTEXT ( 'NONE', #89, 'mechanical' ) ;
#123 = APPLICATION_CONTEXT ( 'configuration controlled 3d designs of mechanical parts and assemblies' ) ;
#124 = CARTESIAN_POINT ( 'NONE',  ( 0.0000000000000000000, 0.0000000000000000000, 0.0000000000000000000 ) ) ;
#125 = COORDINATED_UNIVERSAL_TIME_OFFSET ( 1, 0, .AHEAD. ) ;
#126 = PERSON_AND_ORGANIZATION ( #67, #42 ) ;
#127 = PERSON_AND_ORGANIZATION ( #67, #42 ) ;
#128 = DIRECTION ( 'NONE',  ( -3.491481338843133355E-15, 1.224646799147353207E-16, -1.000000000000000000 ) ) ;
#129 =( LENGTH_UNIT ( ) NAMED_UNIT ( * ) SI_UNIT ( .MILLI., .METRE. ) );
#130 = LOCAL_TIME ( 14, 42, 36.00000000000000000, #120 ) ;
#131 = ADVANCED_FACE ( 'NONE', ( #173, #51 ), #32, .T. ) ;
#132 = CARTESIAN_POINT ( 'NONE',  ( 1.312796983405018142E-13, -4.604671964794047724E-15, 37.60000000000000142 ) ) ;
#133 = VERTEX_POINT ( 'NONE', #98 ) ;
#134 = PRODUCT_RELATED_PRODUCT_CATEGORY ( 'detail', '', ( #197 ) ) ;
#135 = AXIS2_PLACEMENT_3D ( 'NONE', #100, #1, #116 ) ;
#136 = ORIENTED_EDGE ( 'NONE', *, *, #155, .T. ) ;
#137 = ORIENTED_EDGE ( 'NONE', *, *, #104, .T. ) ;
#138 = CALENDAR_DATE ( 2021, 25, 11 ) ;
#139 = PERSON_AND_ORGANIZATION ( #67, #42 ) ;
#140 = CC_DESIGN_PERSON_AND_ORGANIZATION_ASSIGNMENT ( #127, #183, ( #144 ) ) ;
#141 = CARTESIAN_POINT ( 'NONE',  ( 1.326762908760390423E-13, -4.653657836759941941E-15, 38.00000000000000000 ) ) ;
#142 = CIRCLE ( 'NONE', #99, 1.499999999999995781 ) ;
#143 = APPROVAL ( #9, 'UNSPECIFIED' ) ;
#144 = PRODUCT_DEFINITION_FORMATION_WITH_SPECIFIED_SOURCE ( 'ANY', '', #197, .NOT_KNOWN. ) ;
#145 = ADVANCED_BREP_SHAPE_REPRESENTATION ( '961322', ( #178, #48, #71 ), #5 ) ;
#146 = EDGE_LOOP ( 'NONE', ( #72 ) ) ;
#147 = COORDINATED_UNIVERSAL_TIME_OFFSET ( 1, 0, .AHEAD. ) ;
#148 = APPROVAL_ROLE ( '' ) ;
#149 = FACE_OUTER_BOUND ( 'NONE', #87, .T. ) ;
#150 = APPROVAL_DATE_TIME ( #200, #38 ) ;
#151 = LOCAL_TIME ( 14, 42, 36.00000000000000000, #147 ) ;
#152 = EDGE_LOOP ( 'NONE', ( #136 ) ) ;
#153 = CALENDAR_DATE ( 2021, 25, 11 ) ;
#154 = APPROVAL_DATE_TIME ( #45, #143 ) ;
#155 = EDGE_CURVE ( 'NONE', #133, #133, #115, .T. ) ;
#156 = DIRECTION ( 'NONE',  ( 3.491481338843133355E-15, -1.224646799147353207E-16, 1.000000000000000000 ) ) ;
#157 = APPROVAL_PERSON_ORGANIZATION ( #94, #118, #148 ) ;
#158 = FACE_OUTER_BOUND ( 'NONE', #46, .T. ) ;
#159 = PLANE ( 'NONE',  #20 ) ;
#160 = VERTEX_POINT ( 'NONE', #78 ) ;
#161 = FACE_OUTER_BOUND ( 'NONE', #152, .T. ) ;
#162 = ADVANCED_FACE ( 'NONE', ( #158 ), #159, .F. ) ;
#163 = DIRECTION ( 'NONE',  ( -5.135813185032643538E-31, -1.000000000000000000, -1.445602896647343354E-16 ) ) ;
#164 = CONICAL_SURFACE ( 'NONE', #86, 1.499999999999995781, 1.047197551196592746 ) ;
#165 = DIRECTION ( 'NONE',  ( -4.275831445896958607E-31, -1.000000000000000000, -1.224646799147353207E-16 ) ) ;
#166 = CARTESIAN_POINT ( 'NONE',  ( -7.336498306801607025E-32, 2.573297204375585962E-33, -2.101256628578309900E-17 ) ) ;
#167 = CIRCLE ( 'NONE', #50, 0.02499999999999999792 ) ;
#168 = APPROVAL_STATUS ( 'not_yet_approved' ) ;
#169 = APPROVAL_ROLE ( '' ) ;
#170 = LOCAL_TIME ( 14, 42, 36.00000000000000000, #91 ) ;
#171 = PERSON_AND_ORGANIZATION_ROLE ( 'design_owner' ) ;
#172 = AXIS2_PLACEMENT_3D ( 'NONE', #124, #92, #60 ) ;
#173 = FACE_OUTER_BOUND ( 'NONE', #29, .T. ) ;
#174 = VERTEX_POINT ( 'NONE', #35 ) ;
#175 = CARTESIAN_POINT ( 'NONE',  ( 2.973316344006191683E-15, 1.124819836996390058E-32, 0.8515916470547053585 ) ) ;
#176 = CC_DESIGN_PERSON_AND_ORGANIZATION_ASSIGNMENT ( #185, #49, ( #179 ) ) ;
#177 = APPROVAL_PERSON_ORGANIZATION ( #76, #143, #202 ) ;
#178 = MANIFOLD_SOLID_BREP ( 'Corps-Déplacer/Copier1[1]', #194 ) ;
#179 = PRODUCT_DEFINITION ( 'UNKNOWN', '', #144, #84 ) ;
#180 = UNCERTAINTY_MEASURE_WITH_UNIT (LENGTH_MEASURE( 1.000000000000000082E-05 ), #129, 'distance_accuracy_value', 'NONE');
#181 = ORIENTED_EDGE ( 'NONE', *, *, #187, .T. ) ;
#182 = APPROVAL_STATUS ( 'not_yet_approved' ) ;
#183 = PERSON_AND_ORGANIZATION_ROLE ( 'creator' ) ;
#184 = APPROVAL_PERSON_ORGANIZATION ( #73, #38, #169 ) ;
#185 = PERSON_AND_ORGANIZATION ( #67, #42 ) ;
#186 = DIRECTION ( 'NONE',  ( 5.135813185032643538E-31, 1.000000000000000000, 1.445602896647343354E-16 ) ) ;
#187 = EDGE_CURVE ( 'NONE', #160, #160, #75, .T. ) ;
#188 = AXIS2_PLACEMENT_3D ( 'NONE', #141, #4, #65 ) ;
#189 = DIRECTION ( 'NONE',  ( 0.0000000000000000000, 1.000000000000000000, 0.0000000000000000000 ) ) ;
#190 = CARTESIAN_POINT ( 'NONE',  ( 2.973316344006191288E-15, -1.042898984746167271E-16, 0.8515916470547052475 ) ) ;
#191 = EDGE_CURVE ( 'NONE', #16, #16, #106, .T. ) ;
#192 = DIRECTION ( 'NONE',  ( -4.275831445896958607E-31, -1.000000000000000000, -1.224646799147353207E-16 ) ) ;
#193 = APPLICATION_PROTOCOL_DEFINITION ( 'international standard', 'config_control_design', 1994, #89 ) ;
#194 = CLOSED_SHELL ( 'NONE', ( #57, #6, #131, #162 ) ) ;
#195 = APPLICATION_PROTOCOL_DEFINITION ( 'international standard', 'config_control_design', 1994, #123 ) ;
#196 = ADVANCED_FACE ( 'NONE', ( #96 ), #2, .T. ) ;
#197 = PRODUCT ( '961322', '961322', '', ( #122 ) ) ;
#198 = PERSON_AND_ORGANIZATION ( #67, #42 ) ;
#199 = FACE_OUTER_BOUND ( 'NONE', #146, .T. ) ;
#200 = DATE_AND_TIME ( #26, #170 ) ;
#201 = ORIENTED_EDGE ( 'NONE', *, *, #104, .F. ) ;
#202 = APPROVAL_ROLE ( '' ) ;
#203 = DATE_AND_TIME ( #109, #119 ) ;
ENDSEC;
END-ISO-10303-21;
