ISO-10303-21;
HEADER;
FILE_DESCRIPTION (( 'STEP AP203' ),
    '1' );
FILE_NAME ('961304.step',
    '2021-10-13T12:57:32',
    ( '' ),
    ( '' ),
    'SwSTEP 2.0',
    'SolidWorks 2019',
    '' );
FILE_SCHEMA (( 'CONFIG_CONTROL_DESIGN' ));
ENDSEC;

DATA;
#1 = VERTEX_POINT ( 'NONE', #161 ) ;
#2 = EDGE_LOOP ( 'NONE', ( #170 ) ) ;
#3 = AXIS2_PLACEMENT_3D ( 'NONE', #253, #54, #34 ) ;
#4 = PERSON_AND_ORGANIZATION ( #117, #235 ) ;
#5 = ORIENTED_EDGE ( 'NONE', *, *, #258, .T. ) ;
#6 = APPLICATION_PROTOCOL_DEFINITION ( 'international standard', 'config_control_design', 1994, #44 ) ;
#7 = ORIENTED_EDGE ( 'NONE', *, *, #178, .F. ) ;
#8 = APPLICATION_PROTOCOL_DEFINITION ( 'international standard', 'config_control_design', 1994, #17 ) ;
#9 = CC_DESIGN_APPROVAL ( #101, ( #244 ) ) ;
#10 = PERSON_AND_ORGANIZATION ( #117, #235 ) ;
#11 = EDGE_LOOP ( 'NONE', ( #89 ) ) ;
#12 = SHAPE_DEFINITION_REPRESENTATION ( #221, #68 ) ;
#13 = EDGE_LOOP ( 'NONE', ( #195 ) ) ;
#14 = CC_DESIGN_APPROVAL ( #184, ( #153 ) ) ;
#15 = CARTESIAN_POINT ( 'NONE',  ( 2.478050797627915334E-15, -8.691832156390964197E-17, 0.7097419568191053463 ) ) ;
#16 = DIRECTION ( 'NONE',  ( -3.491481338843133355E-15, 4.327174794786742882E-16, -1.000000000000000000 ) ) ;
#17 = APPLICATION_CONTEXT ( 'configuration controlled 3d designs of mechanical parts and assemblies' ) ;
#18 = ORIENTED_EDGE ( 'NONE', *, *, #178, .T. ) ;
#19 = VERTEX_POINT ( 'NONE', #103 ) ;
#20 = DESIGN_CONTEXT ( 'detailed design', #17, 'design' ) ;
#21 = DIRECTION ( 'NONE',  ( 0.0000000000000000000, 1.000000000000000000, 0.0000000000000000000 ) ) ;
#22 = DIRECTION ( 'NONE',  ( -3.491481338843133355E-15, 1.224646799147353207E-16, -1.000000000000000000 ) ) ;
#23 = CC_DESIGN_PERSON_AND_ORGANIZATION_ASSIGNMENT ( #194, #25, ( #153 ) ) ;
#24 = CARTESIAN_POINT ( 'NONE',  ( 2.733829888314173228E-13, -9.588984437323775038E-15, 78.29999999999999716 ) ) ;
#25 = PERSON_AND_ORGANIZATION_ROLE ( 'design_supplier' ) ;
#26 = CIRCLE ( 'NONE', #143, 1.950000000000009059 ) ;
#27 = APPROVAL_STATUS ( 'not_yet_approved' ) ;
#28 = CYLINDRICAL_SURFACE ( 'NONE', #75, 1.950000000000004396 ) ;
#29 = MECHANICAL_CONTEXT ( 'NONE', #44, 'mechanical' ) ;
#30 = AXIS2_PLACEMENT_3D ( 'NONE', #113, #61, #88 ) ;
#31 = DATE_AND_TIME ( #245, #104 ) ;
#32 = ADVANCED_FACE ( 'NONE', ( #209, #206 ), #84, .T. ) ;
#33 = CARTESIAN_POINT ( 'NONE',  ( 1.126094485956952720E-13, -1.395627587056161967E-14, 32.25262794416288870 ) ) ;
#34 = DIRECTION ( 'NONE',  ( 1.510825004591027679E-30, 1.000000000000000000, 4.327174794786742882E-16 ) ) ;
#35 = FACE_OUTER_BOUND ( 'NONE', #181, .T. ) ;
#36 = FACE_OUTER_BOUND ( 'NONE', #73, .T. ) ;
#37 = ORIENTED_EDGE ( 'NONE', *, *, #79, .T. ) ;
#38 = DIRECTION ( 'NONE',  ( -3.491481338843133355E-15, 1.224646799147353207E-16, -1.000000000000000000 ) ) ;
#39 = UNCERTAINTY_MEASURE_WITH_UNIT (LENGTH_MEASURE( 1.000000000000000082E-05 ), #112, 'distance_accuracy_value', 'NONE');
#40 = FACE_OUTER_BOUND ( 'NONE', #183, .T. ) ;
#41 = LOCAL_TIME ( 14, 57, 32.00000000000000000, #252 ) ;
#42 = CARTESIAN_POINT ( 'NONE',  ( 8.868362600661558722E-14, 2.249639673992779843E-32, 25.39999999999999858 ) ) ;
#43 = VERTEX_POINT ( 'NONE', #121 ) ;
#44 = APPLICATION_CONTEXT ( 'configuration controlled 3d designs of mechanical parts and assemblies' ) ;
#45 = EDGE_CURVE ( 'NONE', #19, #19, #200, .T. ) ;
#46 = AXIS2_PLACEMENT_3D ( 'NONE', #56, #173, #234 ) ;
#47 = EDGE_LOOP ( 'NONE', ( #18 ) ) ;
#48 = DIRECTION ( 'NONE',  ( 1.000000000000000000, 0.0000000000000000000, 0.0000000000000000000 ) ) ;
#49 = COORDINATED_UNIVERSAL_TIME_OFFSET ( 1, 0, .AHEAD. ) ;
#50 = DATE_TIME_ROLE ( 'classification_date' ) ;
#51 = PERSON_AND_ORGANIZATION ( #117, #235 ) ;
#52 = ORIENTED_EDGE ( 'NONE', *, *, #226, .T. ) ;
#53 = CARTESIAN_POINT ( 'NONE',  ( 2.758270257686075477E-13, 1.724723750061124754E-32, 79.00000000000000000 ) ) ;
#54 = DIRECTION ( 'NONE',  ( -3.491481338843133355E-15, 4.327174794786742882E-16, -1.000000000000000000 ) ) ;
#55 = DIRECTION ( 'NONE',  ( 0.0000000000000000000, 1.000000000000000000, 0.0000000000000000000 ) ) ;
#56 = CARTESIAN_POINT ( 'NONE',  ( 1.095857370594177677E-13, -1.358153154067150774E-14, 31.38660254037842989 ) ) ;
#57 = CYLINDRICAL_SURFACE ( 'NONE', #159, 3.000000000000000000 ) ;
#58 = CONICAL_SURFACE ( 'NONE', #207, 2.999999999999993783, 1.221730476396026388 ) ;
#59 = CARTESIAN_POINT ( 'NONE',  ( 1.023004032281038010E-13, -1.267862214872515791E-14, 29.30000000000000071 ) ) ;
#60 = DIRECTION ( 'NONE',  ( 1.510825004591028030E-30, 1.000000000000000000, 4.327174794786742882E-16 ) ) ;
#61 = DIRECTION ( 'NONE',  ( 3.491481338843133355E-15, -1.224646799147353207E-16, 1.000000000000000000 ) ) ;
#62 = APPROVAL_PERSON_ORGANIZATION ( #201, #184, #166 ) ;
#63 = CARTESIAN_POINT ( 'NONE',  ( 2.733829888314173228E-13, 2.999999999999993783, 78.29999999999999716 ) ) ;
#64 = DIRECTION ( 'NONE',  ( -3.491481338843133355E-15, 4.327174794786742882E-16, -1.000000000000000000 ) ) ;
#65 = PERSON_AND_ORGANIZATION_ROLE ( 'creator' ) ;
#66 = ORIENTED_EDGE ( 'NONE', *, *, #226, .F. ) ;
#67 = PERSON_AND_ORGANIZATION ( #117, #235 ) ;
#68 = ADVANCED_BREP_SHAPE_REPRESENTATION ( '961304', ( #243, #242, #98 ), #198 ) ;
#69 = CARTESIAN_POINT ( 'NONE',  ( 3.812385842504469655E-15, -1.337204947137065916E-16, 1.091910702798619237 ) ) ;
#70 = EDGE_CURVE ( 'NONE', #177, #177, #128, .T. ) ;
#71 = ORIENTED_EDGE ( 'NONE', *, *, #258, .F. ) ;
#72 = DATE_AND_TIME ( #169, #123 ) ;
#73 = EDGE_LOOP ( 'NONE', ( #66 ) ) ;
#74 = EDGE_CURVE ( 'NONE', #138, #138, #211, .T. ) ;
#75 = AXIS2_PLACEMENT_3D ( 'NONE', #164, #64, #238 ) ;
#76 = EDGE_LOOP ( 'NONE', ( #7 ) ) ;
#77 = CARTESIAN_POINT ( 'NONE',  ( 2.758270257686075477E-13, -9.674709713264090904E-15, 79.00000000000000000 ) ) ;
#78 = DIRECTION ( 'NONE',  ( -4.275831445896958607E-31, -1.000000000000000000, -1.224646799147353207E-16 ) ) ;
#79 = EDGE_CURVE ( 'NONE', #43, #43, #190, .T. ) ;
#80 = DIRECTION ( 'NONE',  ( -5.135813185032639159E-31, -1.000000000000000000, -1.445602896647342121E-16 ) ) ;
#81 = AXIS2_PLACEMENT_3D ( 'NONE', #53, #22, #263 ) ;
#82 = LOCAL_TIME ( 14, 57, 32.00000000000000000, #49 ) ;
#83 = CC_DESIGN_PERSON_AND_ORGANIZATION_ASSIGNMENT ( #67, #65, ( #244 ) ) ;
#84 = CONICAL_SURFACE ( 'NONE', #163, 2.300000000000003375, 0.7853981633974439491 ) ;
#85 = VERTEX_POINT ( 'NONE', #179 ) ;
#86 = FACE_BOUND ( 'NONE', #251, .T. ) ;
#87 = CARTESIAN_POINT ( 'NONE',  ( 2.478050797627914545E-15, -1.950000000000004396, 0.7097419568191051242 ) ) ;
#88 = DIRECTION ( 'NONE',  ( -4.275831445896958607E-31, -1.000000000000000000, -1.224646799147353207E-16 ) ) ;
#89 = ORIENTED_EDGE ( 'NONE', *, *, #70, .T. ) ;
#90 = CARTESIAN_POINT ( 'NONE',  ( 0.0000000000000000000, 0.0000000000000000000, 0.0000000000000000000 ) ) ;
#91 = SECURITY_CLASSIFICATION_LEVEL ( 'unclassified' ) ;
#92 = CIRCLE ( 'NONE', #260, 3.000000000000003553 ) ;
#93 = ADVANCED_FACE ( 'NONE', ( #237, #97 ), #57, .T. ) ;
#94 = DATE_AND_TIME ( #199, #82 ) ;
#95 = EDGE_LOOP ( 'NONE', ( #5 ) ) ;
#96 = PERSON_AND_ORGANIZATION_ROLE ( 'creator' ) ;
#97 = FACE_OUTER_BOUND ( 'NONE', #95, .T. ) ;
#98 = AXIS2_PLACEMENT_3D ( 'NONE', #90, #162, #48 ) ;
#99 = EDGE_LOOP ( 'NONE', ( #71 ) ) ;
#100 = PLANE ( 'NONE',  #30 ) ;
#101 = APPROVAL ( #227, 'UNSPECIFIED' ) ;
#102 = FACE_OUTER_BOUND ( 'NONE', #109, .T. ) ;
#103 = CARTESIAN_POINT ( 'NONE',  ( 1.095857370594177677E-13, -3.000000000000013323, 31.38660254037842989 ) ) ;
#104 = LOCAL_TIME ( 14, 57, 32.00000000000000000, #220 ) ;
#105 = DIRECTION ( 'NONE',  ( 3.491481338843133355E-15, -1.224646799147353207E-16, 1.000000000000000000 ) ) ;
#106 = VERTEX_POINT ( 'NONE', #87 ) ;
#107 = PERSON_AND_ORGANIZATION ( #117, #235 ) ;
#108 = DATE_AND_TIME ( #125, #41 ) ;
#109 = EDGE_LOOP ( 'NONE', ( #37 ) ) ;
#110 = APPROVAL_STATUS ( 'not_yet_approved' ) ;
#111 = FACE_OUTER_BOUND ( 'NONE', #126, .T. ) ;
#112 =( LENGTH_UNIT ( ) NAMED_UNIT ( * ) SI_UNIT ( .MILLI., .METRE. ) );
#113 = CARTESIAN_POINT ( 'NONE',  ( 8.868362600661558722E-14, 2.249639673992779843E-32, 25.39999999999999858 ) ) ;
#114 = FACE_OUTER_BOUND ( 'NONE', #13, .T. ) ;
#115 = CC_DESIGN_PERSON_AND_ORGANIZATION_ASSIGNMENT ( #10, #96, ( #153 ) ) ;
#116 = APPROVAL_PERSON_ORGANIZATION ( #4, #101, #144 ) ;
#117 = PERSON ( 'UNSPECIFIED', 'UNSPECIFIED', 'UNSPECIFIED', ('UNSPECIFIED'), ('UNSPECIFIED'), ('UNSPECIFIED') ) ;
#118 = CLOSED_SHELL ( 'NONE', ( #158, #212, #182 ) ) ;
#119 = CIRCLE ( 'NONE', #137, 1.950000000000004396 ) ;
#120 = DIRECTION ( 'NONE',  ( 4.275831445896959482E-31, 1.000000000000000000, 1.224646799147353207E-16 ) ) ;
#121 = CARTESIAN_POINT ( 'NONE',  ( 1.040461438975253740E-13, 2.083974596215556918, 29.80000000000000071 ) ) ;
#122 = APPROVAL_DATE_TIME ( #31, #101 ) ;
#123 = LOCAL_TIME ( 14, 57, 32.00000000000000000, #148 ) ;
#124 =( NAMED_UNIT ( * ) SI_UNIT ( $, .STERADIAN. ) SOLID_ANGLE_UNIT ( ) );
#125 = CALENDAR_DATE ( 2021, 13, 10 ) ;
#126 = EDGE_LOOP ( 'NONE', ( #168 ) ) ;
#127 = CC_DESIGN_SECURITY_CLASSIFICATION ( #185, ( #153 ) ) ;
#128 = CIRCLE ( 'NONE', #193, 2.300000000000003375 ) ;
#129 = AXIS2_PLACEMENT_3D ( 'NONE', #42, #105, #78 ) ;
#130 = CARTESIAN_POINT ( 'NONE',  ( 8.868362600661558722E-14, -1.099102397875832755E-14, 25.39999999999999858 ) ) ;
#131 = DIRECTION ( 'NONE',  ( -3.950625526948167328E-31, -1.000000000000000000, -1.112002228190258486E-16 ) ) ;
#132 = APPROVAL_DATE_TIME ( #171, #189 ) ;
#133 = ORIENTED_EDGE ( 'NONE', *, *, #256, .T. ) ;
#134 = DIRECTION ( 'NONE',  ( -3.491481338843133355E-15, 1.224646799147353207E-16, -1.000000000000000000 ) ) ;
#135 = DIRECTION ( 'NONE',  ( -3.491481338843133355E-15, 1.224646799147353207E-16, -1.000000000000000000 ) ) ;
#136 = DIRECTION ( 'NONE',  ( -3.491481338843133355E-15, 4.327174794786742882E-16, -1.000000000000000000 ) ) ;
#137 = AXIS2_PLACEMENT_3D ( 'NONE', #15, #151, #131 ) ;
#138 = VERTEX_POINT ( 'NONE', #214 ) ;
#139 = CONICAL_SURFACE ( 'NONE', #247, 3.500000000000012434, 0.5235987755982994818 ) ;
#140 = PLANE ( 'NONE',  #129 ) ;
#141 = ADVANCED_FACE ( 'NONE', ( #35, #102 ), #180, .F. ) ;
#142 =( NAMED_UNIT ( * ) PLANE_ANGLE_UNIT ( ) SI_UNIT ( $, .RADIAN. ) );
#143 = AXIS2_PLACEMENT_3D ( 'NONE', #59, #136, #261 ) ;
#144 = APPROVAL_ROLE ( '' ) ;
#145 = COORDINATED_UNIVERSAL_TIME_OFFSET ( 1, 0, .AHEAD. ) ;
#146 = DIRECTION ( 'NONE',  ( 3.491481338843133355E-15, -4.327174794786742882E-16, 1.000000000000000000 ) ) ;
#147 = EDGE_LOOP ( 'NONE', ( #204 ) ) ;
#148 = COORDINATED_UNIVERSAL_TIME_OFFSET ( 1, 0, .AHEAD. ) ;
#149 = CARTESIAN_POINT ( 'NONE',  ( 0.0000000000000000000, 0.0000000000000000000, 0.0000000000000000000 ) ) ;
#150 = ORIENTED_EDGE ( 'NONE', *, *, #79, .F. ) ;
#151 = DIRECTION ( 'NONE',  ( -3.491481338843133355E-15, 1.224646799147353207E-16, -1.000000000000000000 ) ) ;
#152 = ADVANCED_FACE ( 'NONE', ( #229, #114 ), #28, .T. ) ;
#153 = PRODUCT_DEFINITION_FORMATION_WITH_SPECIFIED_SOURCE ( 'ANY', '', #231, .NOT_KNOWN. ) ;
#154 = DIRECTION ( 'NONE',  ( 0.0000000000000000000, 1.000000000000000000, 0.0000000000000000000 ) ) ;
#155 = CLOSED_SHELL ( 'NONE', ( #93, #32, #196, #152, #208, #141, #202 ) ) ;
#156 = CARTESIAN_POINT ( 'NONE',  ( 8.868362600661558722E-14, -1.099102397875832755E-14, 25.39999999999999858 ) ) ;
#157 = AXIS2_PLACEMENT_3D ( 'NONE', #192, #216, #60 ) ;
#158 = ADVANCED_FACE ( 'NONE', ( #250 ), #58, .T. ) ;
#159 = AXIS2_PLACEMENT_3D ( 'NONE', #149, #134, #120 ) ;
#160 = CC_DESIGN_PERSON_AND_ORGANIZATION_ASSIGNMENT ( #165, #246, ( #185 ) ) ;
#161 = CARTESIAN_POINT ( 'NONE',  ( 1.023004032281038010E-13, 1.949999999999996403, 29.30000000000000071 ) ) ;
#162 = DIRECTION ( 'NONE',  ( 0.0000000000000000000, 0.0000000000000000000, 1.000000000000000000 ) ) ;
#163 = AXIS2_PLACEMENT_3D ( 'NONE', #210, #254, #232 ) ;
#164 = CARTESIAN_POINT ( 'NONE',  ( 0.0000000000000000000, 0.0000000000000000000, 0.0000000000000000000 ) ) ;
#165 = PERSON_AND_ORGANIZATION ( #117, #235 ) ;
#166 = APPROVAL_ROLE ( '' ) ;
#167 = EDGE_LOOP ( 'NONE', ( #133 ) ) ;
#168 = ORIENTED_EDGE ( 'NONE', *, *, #70, .F. ) ;
#169 = CALENDAR_DATE ( 2021, 13, 10 ) ;
#170 = ORIENTED_EDGE ( 'NONE', *, *, #45, .T. ) ;
#171 = DATE_AND_TIME ( #225, #224 ) ;
#172 = DIRECTION ( 'NONE',  ( -3.491481338843133355E-15, 1.224646799147353207E-16, -1.000000000000000000 ) ) ;
#173 = DIRECTION ( 'NONE',  ( 3.491481338843133355E-15, -4.327174794786742882E-16, 1.000000000000000000 ) ) ;
#174 = FACE_OUTER_BOUND ( 'NONE', #147, .T. ) ;
#175 = CIRCLE ( 'NONE', #241, 1.950000000000004396 ) ;
#176 = FACE_OUTER_BOUND ( 'NONE', #76, .T. ) ;
#177 = VERTEX_POINT ( 'NONE', #240 ) ;
#178 = EDGE_CURVE ( 'NONE', #106, #106, #119, .T. ) ;
#179 = CARTESIAN_POINT ( 'NONE',  ( 8.868362600661558722E-14, -1.950000000000015499, 25.39999999999999858 ) ) ;
#180 = TOROIDAL_SURFACE ( 'NONE', #3, 2.950000000000008615, 1.000000000000000222 ) ;
#181 = EDGE_LOOP ( 'NONE', ( #222 ) ) ;
#182 = ADVANCED_FACE ( 'NONE', ( #36 ), #100, .T. ) ;
#183 = EDGE_LOOP ( 'NONE', ( #52 ) ) ;
#184 = APPROVAL ( #27, 'UNSPECIFIED' ) ;
#185 = SECURITY_CLASSIFICATION ( '', '', #91 ) ;
#186 = EDGE_LOOP ( 'NONE', ( #218 ) ) ;
#187 = DIRECTION ( 'NONE',  ( 0.0000000000000000000, -1.000000000000000000, 0.0000000000000000000 ) ) ;
#188 = DIRECTION ( 'NONE',  ( 3.491481338843133355E-15, -1.224646799147353207E-16, 1.000000000000000000 ) ) ;
#189 = APPROVAL ( #110, 'UNSPECIFIED' ) ;
#190 = CIRCLE ( 'NONE', #233, 2.083974596215570241 ) ;
#191 = CC_DESIGN_PERSON_AND_ORGANIZATION_ASSIGNMENT ( #51, #203, ( #231 ) ) ;
#192 = CARTESIAN_POINT ( 'NONE',  ( 0.0000000000000000000, 0.0000000000000000000, 0.0000000000000000000 ) ) ;
#193 = AXIS2_PLACEMENT_3D ( 'NONE', #77, #172, #55 ) ;
#194 = PERSON_AND_ORGANIZATION ( #117, #235 ) ;
#195 = ORIENTED_EDGE ( 'NONE', *, *, #74, .F. ) ;
#196 = ADVANCED_FACE ( 'NONE', ( #111 ), #228, .F. ) ;
#197 = DATE_TIME_ROLE ( 'creation_date' ) ;
#198 =( GEOMETRIC_REPRESENTATION_CONTEXT ( 3 ) GLOBAL_UNCERTAINTY_ASSIGNED_CONTEXT ( ( #39 ) ) GLOBAL_UNIT_ASSIGNED_CONTEXT ( ( #112, #142, #124 ) ) REPRESENTATION_CONTEXT ( 'NONE', 'WORKASPACE' ) );
#199 = CALENDAR_DATE ( 2021, 13, 10 ) ;
#200 = CIRCLE ( 'NONE', #46, 3.000000000000000000 ) ;
#201 = PERSON_AND_ORGANIZATION ( #117, #235 ) ;
#202 = ADVANCED_FACE ( 'NONE', ( #174 ), #140, .F. ) ;
#203 = PERSON_AND_ORGANIZATION_ROLE ( 'design_owner' ) ;
#204 = ORIENTED_EDGE ( 'NONE', *, *, #74, .T. ) ;
#205 = CC_DESIGN_APPROVAL ( #189, ( #185 ) ) ;
#206 = FACE_BOUND ( 'NONE', #11, .T. ) ;
#207 = AXIS2_PLACEMENT_3D ( 'NONE', #69, #188, #80 ) ;
#208 = ADVANCED_FACE ( 'NONE', ( #86, #257 ), #139, .T. ) ;
#209 = FACE_OUTER_BOUND ( 'NONE', #99, .T. ) ;
#210 = CARTESIAN_POINT ( 'NONE',  ( 2.758270257686075477E-13, -9.674709713264090904E-15, 79.00000000000000000 ) ) ;
#211 = CIRCLE ( 'NONE', #262, 1.950000000000004396 ) ;
#212 = ADVANCED_FACE ( 'NONE', ( #40, #176 ), #259, .T. ) ;
#213 = DIRECTION ( 'NONE',  ( -3.491481338843133355E-15, 1.224646799147353207E-16, -1.000000000000000000 ) ) ;
#214 = CARTESIAN_POINT ( 'NONE',  ( 8.868362600661558722E-14, -1.950000000000015499, 25.39999999999999858 ) ) ;
#215 = APPROVAL_PERSON_ORGANIZATION ( #107, #189, #249 ) ;
#216 = DIRECTION ( 'NONE',  ( -3.491481338843133355E-15, 4.327174794786742882E-16, -1.000000000000000000 ) ) ;
#217 = VERTEX_POINT ( 'NONE', #63 ) ;
#218 = ORIENTED_EDGE ( 'NONE', *, *, #45, .F. ) ;
#219 = CC_DESIGN_DATE_AND_TIME_ASSIGNMENT ( #108, #197, ( #244 ) ) ;
#220 = COORDINATED_UNIVERSAL_TIME_OFFSET ( 1, 0, .AHEAD. ) ;
#221 = PRODUCT_DEFINITION_SHAPE ( 'NONE', 'NONE',  #244 ) ;
#222 = ORIENTED_EDGE ( 'NONE', *, *, #256, .F. ) ;
#223 = APPROVAL_DATE_TIME ( #72, #184 ) ;
#224 = LOCAL_TIME ( 14, 57, 32.00000000000000000, #145 ) ;
#225 = CALENDAR_DATE ( 2021, 13, 10 ) ;
#226 = EDGE_CURVE ( 'NONE', #85, #85, #175, .T. ) ;
#227 = APPROVAL_STATUS ( 'not_yet_approved' ) ;
#228 = PLANE ( 'NONE',  #81 ) ;
#229 = FACE_OUTER_BOUND ( 'NONE', #167, .T. ) ;
#230 = DIRECTION ( 'NONE',  ( 0.0000000000000000000, -1.000000000000000000, 0.0000000000000000000 ) ) ;
#231 = PRODUCT ( '961304', '961304', '', ( #29 ) ) ;
#232 = DIRECTION ( 'NONE',  ( 0.0000000000000000000, 1.000000000000000000, 0.0000000000000000000 ) ) ;
#233 = AXIS2_PLACEMENT_3D ( 'NONE', #255, #16, #154 ) ;
#234 = DIRECTION ( 'NONE',  ( 0.0000000000000000000, -1.000000000000000000, 0.0000000000000000000 ) ) ;
#235 = ORGANIZATION ( 'UNSPECIFIED', 'UNSPECIFIED', '' ) ;
#236 = CC_DESIGN_DATE_AND_TIME_ASSIGNMENT ( #94, #50, ( #185 ) ) ;
#237 = FACE_OUTER_BOUND ( 'NONE', #2, .T. ) ;
#238 = DIRECTION ( 'NONE',  ( 1.510825004591028030E-30, 1.000000000000000000, 4.327174794786742882E-16 ) ) ;
#239 = DIRECTION ( 'NONE',  ( 0.0000000000000000000, -1.000000000000000000, 0.0000000000000000000 ) ) ;
#240 = CARTESIAN_POINT ( 'NONE',  ( 2.758270257686075477E-13, 2.299999999999994049, 79.00000000000000000 ) ) ;
#241 = AXIS2_PLACEMENT_3D ( 'NONE', #156, #135, #239 ) ;
#242 = MANIFOLD_SOLID_BREP ( 'Corps-Déplacer/Copier1[2]', #118 ) ;
#243 = MANIFOLD_SOLID_BREP ( 'Corps-Déplacer/Copier1[1]', #155 ) ;
#244 = PRODUCT_DEFINITION ( 'UNKNOWN', '', #153, #20 ) ;
#245 = CALENDAR_DATE ( 2021, 13, 10 ) ;
#246 = PERSON_AND_ORGANIZATION_ROLE ( 'classification_officer' ) ;
#247 = AXIS2_PLACEMENT_3D ( 'NONE', #33, #146, #230 ) ;
#248 = PRODUCT_RELATED_PRODUCT_CATEGORY ( 'detail', '', ( #231 ) ) ;
#249 = APPROVAL_ROLE ( '' ) ;
#250 = FACE_OUTER_BOUND ( 'NONE', #47, .T. ) ;
#251 = EDGE_LOOP ( 'NONE', ( #150 ) ) ;
#252 = COORDINATED_UNIVERSAL_TIME_OFFSET ( 1, 0, .AHEAD. ) ;
#253 = CARTESIAN_POINT ( 'NONE',  ( 1.023004032281038010E-13, -1.257674520083185143E-14, 29.30000000000000071 ) ) ;
#254 = DIRECTION ( 'NONE',  ( -3.491481338843133355E-15, 1.224646799147353207E-16, -1.000000000000000000 ) ) ;
#255 = CARTESIAN_POINT ( 'NONE',  ( 1.040461438975253740E-13, -1.289498088846449347E-14, 29.80000000000000071 ) ) ;
#256 = EDGE_CURVE ( 'NONE', #1, #1, #26, .T. ) ;
#257 = FACE_OUTER_BOUND ( 'NONE', #186, .T. ) ;
#258 = EDGE_CURVE ( 'NONE', #217, #217, #92, .T. ) ;
#259 = CYLINDRICAL_SURFACE ( 'NONE', #157, 1.950000000000004396 ) ;
#260 = AXIS2_PLACEMENT_3D ( 'NONE', #24, #213, #21 ) ;
#261 = DIRECTION ( 'NONE',  ( 0.0000000000000000000, 1.000000000000000000, 0.0000000000000000000 ) ) ;
#262 = AXIS2_PLACEMENT_3D ( 'NONE', #130, #38, #187 ) ;
#263 = DIRECTION ( 'NONE',  ( 4.275831445896958607E-31, 1.000000000000000000, 1.224646799147353207E-16 ) ) ;
ENDSEC;
END-ISO-10303-21;
