ISO-10303-21;
HEADER;
FILE_DESCRIPTION (( 'STEP AP203' ),
    '1' );
FILE_NAME ('961249.step',
    '2021-11-25T13:47:03',
    ( '' ),
    ( '' ),
    'SwSTEP 2.0',
    'SolidWorks 2019',
    '' );
FILE_SCHEMA (( 'CONFIG_CONTROL_DESIGN' ));
ENDSEC;

DATA;
#1 = EDGE_CURVE ( 'NONE', #85, #85, #48, .T. ) ;
#2 = DIRECTION ( 'NONE',  ( -3.491481338843133355E-15, 1.224646799147353207E-16, -1.000000000000000000 ) ) ;
#3 = FACE_OUTER_BOUND ( 'NONE', #150, .T. ) ;
#4 = LOCAL_TIME ( 14, 47, 3.000000000000000000, #100 ) ;
#5 = EDGE_LOOP ( 'NONE', ( #115 ) ) ;
#6 = APPLICATION_CONTEXT ( 'configuration controlled 3d designs of mechanical parts and assemblies' ) ;
#7 = EDGE_LOOP ( 'NONE', ( #41 ) ) ;
#8 = CARTESIAN_POINT ( 'NONE',  ( 1.312796983405018142E-13, 1.499999999999995781, 37.60000000000000142 ) ) ;
#9 = PRODUCT_DEFINITION_SHAPE ( 'NONE', 'NONE',  #21 ) ;
#10 = FACE_OUTER_BOUND ( 'NONE', #194, .T. ) ;
#11 = EDGE_CURVE ( 'NONE', #152, #152, #29, .T. ) ;
#12 = MECHANICAL_CONTEXT ( 'NONE', #126, 'mechanical' ) ;
#13 = AXIS2_PLACEMENT_3D ( 'NONE', #102, #196, #61 ) ;
#14 = DIRECTION ( 'NONE',  ( 4.275831445896981378E-31, 1.000000000000000000, 1.224646799147346798E-16 ) ) ;
#15 = CALENDAR_DATE ( 2021, 25, 11 ) ;
#16 = CARTESIAN_POINT ( 'NONE',  ( 1.764890278919624113E-30, -6.190401784135967536E-32, 5.054846661458606277E-16 ) ) ;
#17 = APPLICATION_PROTOCOL_DEFINITION ( 'international standard', 'config_control_design', 1994, #126 ) ;
#18 = AXIS2_PLACEMENT_3D ( 'NONE', #181, #179, #170 ) ;
#19 = APPROVAL ( #45, 'UNSPECIFIED' ) ;
#20 = AXIS2_PLACEMENT_3D ( 'NONE', #138, #120, #108 ) ;
#21 = PRODUCT_DEFINITION ( 'UNKNOWN', '', #86, #28 ) ;
#22 = CARTESIAN_POINT ( 'NONE',  ( 1.312796983405018142E-13, -4.604671964794047724E-15, 37.60000000000000142 ) ) ;
#23 = DIRECTION ( 'NONE',  ( 5.135813185032643538E-31, 1.000000000000000000, 1.445602896647343354E-16 ) ) ;
#24 = EDGE_LOOP ( 'NONE', ( #80 ) ) ;
#25 = PERSON_AND_ORGANIZATION ( #49, #92 ) ;
#26 = ORIENTED_EDGE ( 'NONE', *, *, #31, .T. ) ;
#27 = CYLINDRICAL_SURFACE ( 'NONE', #134, 1.499999999999997780 ) ;
#28 = DESIGN_CONTEXT ( 'detailed design', #6, 'design' ) ;
#29 = CIRCLE ( 'NONE', #195, 1.500000000000000222 ) ;
#30 = CC_DESIGN_SECURITY_CLASSIFICATION ( #82, ( #86 ) ) ;
#31 = EDGE_CURVE ( 'NONE', #88, #88, #131, .T. ) ;
#32 = APPROVAL_DATE_TIME ( #169, #19 ) ;
#33 = CARTESIAN_POINT ( 'NONE',  ( 5.062647941322583597E-15, 1.499999999999995559, 1.450000000000011502 ) ) ;
#34 = APPROVAL_ROLE ( '' ) ;
#35 = CARTESIAN_POINT ( 'NONE',  ( 1.786269436149108827E-30, 0.04999999999999999584, 5.116079001415974048E-16 ) ) ;
#36 = CONICAL_SURFACE ( 'NONE', #18, 1.499999999999995781, 0.7853981633974430610 ) ;
#37 = DIRECTION ( 'NONE',  ( 0.0000000000000000000, 1.000000000000000000, 0.0000000000000000000 ) ) ;
#38 = PERSON_AND_ORGANIZATION ( #49, #92 ) ;
#39 = ADVANCED_FACE ( 'NONE', ( #3, #136 ), #27, .T. ) ;
#40 = CC_DESIGN_DATE_AND_TIME_ASSIGNMENT ( #63, #107, ( #21 ) ) ;
#41 = ORIENTED_EDGE ( 'NONE', *, *, #11, .T. ) ;
#42 = UNCERTAINTY_MEASURE_WITH_UNIT (LENGTH_MEASURE( 1.000000000000000082E-05 ), #44, 'distance_accuracy_value', 'NONE');
#43 = FACE_OUTER_BOUND ( 'NONE', #71, .T. ) ;
#44 =( LENGTH_UNIT ( ) NAMED_UNIT ( * ) SI_UNIT ( .MILLI., .METRE. ) );
#45 = APPROVAL_STATUS ( 'not_yet_approved' ) ;
#46 = DIRECTION ( 'NONE',  ( -3.491481338843133355E-15, 1.224646799147353207E-16, -1.000000000000000000 ) ) ;
#47 = FACE_OUTER_BOUND ( 'NONE', #99, .T. ) ;
#48 = CIRCLE ( 'NONE', #51, 1.100000000000000089 ) ;
#49 = PERSON ( 'UNSPECIFIED', 'UNSPECIFIED', 'UNSPECIFIED', ('UNSPECIFIED'), ('UNSPECIFIED'), ('UNSPECIFIED') ) ;
#50 = CARTESIAN_POINT ( 'NONE',  ( 0.0000000000000000000, 0.0000000000000000000, 0.0000000000000000000 ) ) ;
#51 = AXIS2_PLACEMENT_3D ( 'NONE', #58, #177, #101 ) ;
#52 = MANIFOLD_SOLID_BREP ( 'Corps-Déplacer/Copier1[1]', #103 ) ;
#53 = DATE_TIME_ROLE ( 'classification_date' ) ;
#54 = MANIFOLD_SOLID_BREP ( 'Corps-Déplacer/Copier1[2]', #203 ) ;
#55 = PERSON_AND_ORGANIZATION ( #49, #92 ) ;
#56 = AXIS2_PLACEMENT_3D ( 'NONE', #185, #60, #173 ) ;
#57 = PRODUCT_RELATED_PRODUCT_CATEGORY ( 'detail', '', ( #157 ) ) ;
#58 = CARTESIAN_POINT ( 'NONE',  ( 1.326762908760390423E-13, -4.653657836759941941E-15, 38.00000000000000000 ) ) ;
#59 = PERSON_AND_ORGANIZATION_ROLE ( 'creator' ) ;
#60 = DIRECTION ( 'NONE',  ( -3.491481338843133355E-15, 1.224646799147353207E-16, -1.000000000000000000 ) ) ;
#61 = DIRECTION ( 'NONE',  ( 1.000000000000000000, 0.0000000000000000000, 0.0000000000000000000 ) ) ;
#62 = DIRECTION ( 'NONE',  ( -3.491481338843133355E-15, 1.224646799147353207E-16, -1.000000000000000000 ) ) ;
#63 = DATE_AND_TIME ( #178, #4 ) ;
#64 = PLANE ( 'NONE',  #20 ) ;
#65 = APPROVAL_STATUS ( 'not_yet_approved' ) ;
#66 = DIRECTION ( 'NONE',  ( 3.491481338843133355E-15, -1.224646799147353207E-16, 1.000000000000000000 ) ) ;
#67 = CARTESIAN_POINT ( 'NONE',  ( 1.326762908760390423E-13, 1.099999999999995426, 38.00000000000000000 ) ) ;
#68 = DIRECTION ( 'NONE',  ( 0.0000000000000000000, 1.000000000000000000, 0.0000000000000000000 ) ) ;
#69 =( GEOMETRIC_REPRESENTATION_CONTEXT ( 3 ) GLOBAL_UNCERTAINTY_ASSIGNED_CONTEXT ( ( #42 ) ) GLOBAL_UNIT_ASSIGNED_CONTEXT ( ( #44, #106, #140 ) ) REPRESENTATION_CONTEXT ( 'NONE', 'WORKASPACE' ) );
#70 = ADVANCED_FACE ( 'NONE', ( #198 ), #64, .T. ) ;
#71 = EDGE_LOOP ( 'NONE', ( #26 ) ) ;
#72 = PERSON_AND_ORGANIZATION ( #49, #92 ) ;
#73 = CARTESIAN_POINT ( 'NONE',  ( 5.062647941322583597E-15, 1.499999999999995559, 1.450000000000011502 ) ) ;
#74 = FACE_BOUND ( 'NONE', #135, .T. ) ;
#75 = CC_DESIGN_PERSON_AND_ORGANIZATION_ASSIGNMENT ( #38, #186, ( #86 ) ) ;
#76 = CALENDAR_DATE ( 2021, 25, 11 ) ;
#77 = VERTEX_POINT ( 'NONE', #73 ) ;
#78 = CIRCLE ( 'NONE', #81, 0.04999999999999999584 ) ;
#79 = CC_DESIGN_PERSON_AND_ORGANIZATION_ASSIGNMENT ( #72, #59, ( #21 ) ) ;
#80 = ORIENTED_EDGE ( 'NONE', *, *, #174, .F. ) ;
#81 = AXIS2_PLACEMENT_3D ( 'NONE', #16, #171, #14 ) ;
#82 = SECURITY_CLASSIFICATION ( '', '', #93 ) ;
#83 = EDGE_LOOP ( 'NONE', ( #167 ) ) ;
#84 = ORIENTED_EDGE ( 'NONE', *, *, #174, .T. ) ;
#85 = VERTEX_POINT ( 'NONE', #67 ) ;
#86 = PRODUCT_DEFINITION_FORMATION_WITH_SPECIFIED_SOURCE ( 'ANY', '', #157, .NOT_KNOWN. ) ;
#87 = VERTEX_POINT ( 'NONE', #35 ) ;
#88 = VERTEX_POINT ( 'NONE', #33 ) ;
#89 = LOCAL_TIME ( 14, 47, 3.000000000000000000, #190 ) ;
#90 = CARTESIAN_POINT ( 'NONE',  ( 1.326762908760390423E-13, 8.248678804640148420E-33, 38.00000000000000000 ) ) ;
#91 = ADVANCED_FACE ( 'NONE', ( #10 ), #104, .F. ) ;
#92 = ORGANIZATION ( 'UNSPECIFIED', 'UNSPECIFIED', '' ) ;
#93 = SECURITY_CLASSIFICATION_LEVEL ( 'unclassified' ) ;
#94 = AXIS2_PLACEMENT_3D ( 'NONE', #90, #46, #200 ) ;
#95 = PERSON_AND_ORGANIZATION ( #49, #92 ) ;
#96 = ORIENTED_EDGE ( 'NONE', *, *, #172, .T. ) ;
#97 = APPROVAL_PERSON_ORGANIZATION ( #25, #121, #34 ) ;
#98 = ORIENTED_EDGE ( 'NONE', *, *, #11, .F. ) ;
#99 = EDGE_LOOP ( 'NONE', ( #98 ) ) ;
#100 = COORDINATED_UNIVERSAL_TIME_OFFSET ( 1, 0, .AHEAD. ) ;
#101 = DIRECTION ( 'NONE',  ( 0.0000000000000000000, 1.000000000000000000, 0.0000000000000000000 ) ) ;
#102 = CARTESIAN_POINT ( 'NONE',  ( 0.0000000000000000000, 0.0000000000000000000, 0.0000000000000000000 ) ) ;
#103 = CLOSED_SHELL ( 'NONE', ( #164, #39, #147, #159 ) ) ;
#104 = PLANE ( 'NONE',  #161 ) ;
#105 = APPLICATION_PROTOCOL_DEFINITION ( 'international standard', 'config_control_design', 1994, #6 ) ;
#106 =( NAMED_UNIT ( * ) PLANE_ANGLE_UNIT ( ) SI_UNIT ( $, .RADIAN. ) );
#107 = DATE_TIME_ROLE ( 'creation_date' ) ;
#108 = DIRECTION ( 'NONE',  ( -4.275831445896958607E-31, -1.000000000000000000, -1.224646799147353207E-16 ) ) ;
#109 = COORDINATED_UNIVERSAL_TIME_OFFSET ( 1, 0, .AHEAD. ) ;
#110 = PLANE ( 'NONE',  #143 ) ;
#111 = LOCAL_TIME ( 14, 47, 3.000000000000000000, #153 ) ;
#112 = APPROVAL_DATE_TIME ( #189, #182 ) ;
#113 = PERSON_AND_ORGANIZATION_ROLE ( 'classification_officer' ) ;
#114 = LOCAL_TIME ( 14, 47, 3.000000000000000000, #199 ) ;
#115 = ORIENTED_EDGE ( 'NONE', *, *, #1, .F. ) ;
#116 = CC_DESIGN_PERSON_AND_ORGANIZATION_ASSIGNMENT ( #119, #118, ( #157 ) ) ;
#117 = APPROVAL_PERSON_ORGANIZATION ( #95, #182, #141 ) ;
#118 = PERSON_AND_ORGANIZATION_ROLE ( 'design_owner' ) ;
#119 = PERSON_AND_ORGANIZATION ( #49, #92 ) ;
#120 = DIRECTION ( 'NONE',  ( 3.491481338843133355E-15, -1.224646799147353207E-16, 1.000000000000000000 ) ) ;
#121 = APPROVAL ( #65, 'UNSPECIFIED' ) ;
#122 = LOCAL_TIME ( 14, 47, 3.000000000000000000, #109 ) ;
#123 = DIRECTION ( 'NONE',  ( -4.275831445896958607E-31, -1.000000000000000000, -1.224646799147353207E-16 ) ) ;
#124 = PERSON_AND_ORGANIZATION ( #49, #92 ) ;
#125 = FACE_OUTER_BOUND ( 'NONE', #5, .T. ) ;
#126 = APPLICATION_CONTEXT ( 'configuration controlled 3d designs of mechanical parts and assemblies' ) ;
#127 = DIRECTION ( 'NONE',  ( -3.491481338843133355E-15, 1.224646799147353207E-16, -1.000000000000000000 ) ) ;
#128 = CARTESIAN_POINT ( 'NONE',  ( 1.326762908760390423E-13, -4.653657836759941941E-15, 38.00000000000000000 ) ) ;
#129 = CC_DESIGN_APPROVAL ( #182, ( #82 ) ) ;
#130 = CC_DESIGN_DATE_AND_TIME_ASSIGNMENT ( #144, #53, ( #82 ) ) ;
#131 = CIRCLE ( 'NONE', #166, 1.499999999999995781 ) ;
#132 = PERSON_AND_ORGANIZATION_ROLE ( 'creator' ) ;
#133 = EDGE_LOOP ( 'NONE', ( #96 ) ) ;
#134 = AXIS2_PLACEMENT_3D ( 'NONE', #50, #62, #155 ) ;
#135 = EDGE_LOOP ( 'NONE', ( #165 ) ) ;
#136 = FACE_OUTER_BOUND ( 'NONE', #7, .T. ) ;
#137 = CALENDAR_DATE ( 2021, 25, 11 ) ;
#138 = CARTESIAN_POINT ( 'NONE',  ( 5.062647941322583597E-15, 1.124819836996389785E-32, 1.450000000000011502 ) ) ;
#139 = APPROVAL_ROLE ( '' ) ;
#140 =( NAMED_UNIT ( * ) SI_UNIT ( $, .STERADIAN. ) SOLID_ANGLE_UNIT ( ) );
#141 = APPROVAL_ROLE ( '' ) ;
#142 = FACE_OUTER_BOUND ( 'NONE', #133, .T. ) ;
#143 = AXIS2_PLACEMENT_3D ( 'NONE', #154, #202, #156 ) ;
#144 = DATE_AND_TIME ( #15, #89 ) ;
#145 = CONICAL_SURFACE ( 'NONE', #148, 1.100000000000000089, 0.7853981633974516097 ) ;
#146 = CC_DESIGN_APPROVAL ( #19, ( #86 ) ) ;
#147 = ADVANCED_FACE ( 'NONE', ( #47, #74 ), #145, .T. ) ;
#148 = AXIS2_PLACEMENT_3D ( 'NONE', #128, #127, #37 ) ;
#149 = CC_DESIGN_PERSON_AND_ORGANIZATION_ASSIGNMENT ( #160, #113, ( #82 ) ) ;
#150 = EDGE_LOOP ( 'NONE', ( #168 ) ) ;
#151 = APPROVAL_DATE_TIME ( #176, #121 ) ;
#152 = VERTEX_POINT ( 'NONE', #8 ) ;
#153 = COORDINATED_UNIVERSAL_TIME_OFFSET ( 1, 0, .AHEAD. ) ;
#154 = CARTESIAN_POINT ( 'NONE',  ( 5.062647941322583597E-15, 1.124819836996389785E-32, 1.450000000000011502 ) ) ;
#155 = DIRECTION ( 'NONE',  ( 4.275831445896959482E-31, 1.000000000000000000, 1.224646799147353207E-16 ) ) ;
#156 = DIRECTION ( 'NONE',  ( -4.275831445896958607E-31, -1.000000000000000000, -1.224646799147353207E-16 ) ) ;
#157 = PRODUCT ( '961249', '961249', '', ( #12 ) ) ;
#158 = ADVANCED_BREP_SHAPE_REPRESENTATION ( '961249', ( #52, #54, #13 ), #69 ) ;
#159 = ADVANCED_FACE ( 'NONE', ( #125 ), #183, .F. ) ;
#160 = PERSON_AND_ORGANIZATION ( #49, #92 ) ;
#161 = AXIS2_PLACEMENT_3D ( 'NONE', #197, #66, #123 ) ;
#162 = APPROVAL_STATUS ( 'not_yet_approved' ) ;
#163 = DIRECTION ( 'NONE',  ( -3.491481338843133355E-15, 1.224646799147353207E-16, -1.000000000000000000 ) ) ;
#164 = ADVANCED_FACE ( 'NONE', ( #142 ), #110, .F. ) ;
#165 = ORIENTED_EDGE ( 'NONE', *, *, #1, .T. ) ;
#166 = AXIS2_PLACEMENT_3D ( 'NONE', #191, #163, #23 ) ;
#167 = ORIENTED_EDGE ( 'NONE', *, *, #31, .F. ) ;
#168 = ORIENTED_EDGE ( 'NONE', *, *, #172, .F. ) ;
#169 = DATE_AND_TIME ( #184, #114 ) ;
#170 = DIRECTION ( 'NONE',  ( -5.135813185032643538E-31, -1.000000000000000000, -1.445602896647343354E-16 ) ) ;
#171 = DIRECTION ( 'NONE',  ( -3.491481338843133355E-15, 1.224646799147353207E-16, -1.000000000000000000 ) ) ;
#172 = EDGE_CURVE ( 'NONE', #77, #77, #192, .T. ) ;
#173 = DIRECTION ( 'NONE',  ( 5.135813185032643538E-31, 1.000000000000000000, 1.445602896647343354E-16 ) ) ;
#174 = EDGE_CURVE ( 'NONE', #87, #87, #78, .T. ) ;
#175 = CC_DESIGN_PERSON_AND_ORGANIZATION_ASSIGNMENT ( #55, #132, ( #86 ) ) ;
#176 = DATE_AND_TIME ( #137, #111 ) ;
#177 = DIRECTION ( 'NONE',  ( -3.491481338843133355E-15, 1.224646799147353207E-16, -1.000000000000000000 ) ) ;
#178 = CALENDAR_DATE ( 2021, 25, 11 ) ;
#179 = DIRECTION ( 'NONE',  ( 3.491481338843133355E-15, -1.224646799147353207E-16, 1.000000000000000000 ) ) ;
#180 = CC_DESIGN_APPROVAL ( #121, ( #21 ) ) ;
#181 = CARTESIAN_POINT ( 'NONE',  ( 5.062647941322582808E-15, -1.775737858763675968E-16, 1.450000000000011502 ) ) ;
#182 = APPROVAL ( #162, 'UNSPECIFIED' ) ;
#183 = PLANE ( 'NONE',  #94 ) ;
#184 = CALENDAR_DATE ( 2021, 25, 11 ) ;
#185 = CARTESIAN_POINT ( 'NONE',  ( 5.062647941322582808E-15, -1.775737858763675968E-16, 1.450000000000011502 ) ) ;
#186 = PERSON_AND_ORGANIZATION_ROLE ( 'design_supplier' ) ;
#187 = APPROVAL_PERSON_ORGANIZATION ( #124, #19, #139 ) ;
#188 = FACE_BOUND ( 'NONE', #24, .T. ) ;
#189 = DATE_AND_TIME ( #76, #122 ) ;
#190 = COORDINATED_UNIVERSAL_TIME_OFFSET ( 1, 0, .AHEAD. ) ;
#191 = CARTESIAN_POINT ( 'NONE',  ( 5.062647941322582808E-15, -1.775737858763675968E-16, 1.450000000000011502 ) ) ;
#192 = CIRCLE ( 'NONE', #56, 1.499999999999995781 ) ;
#193 = ADVANCED_FACE ( 'NONE', ( #188, #43 ), #36, .T. ) ;
#194 = EDGE_LOOP ( 'NONE', ( #84 ) ) ;
#195 = AXIS2_PLACEMENT_3D ( 'NONE', #22, #2, #68 ) ;
#196 = DIRECTION ( 'NONE',  ( 0.0000000000000000000, 0.0000000000000000000, 1.000000000000000000 ) ) ;
#197 = CARTESIAN_POINT ( 'NONE',  ( 8.824451394598120564E-31, -3.095200892067983768E-32, 2.527423330729303138E-16 ) ) ;
#198 = FACE_OUTER_BOUND ( 'NONE', #83, .T. ) ;
#199 = COORDINATED_UNIVERSAL_TIME_OFFSET ( 1, 0, .AHEAD. ) ;
#200 = DIRECTION ( 'NONE',  ( 4.275831445896958607E-31, 1.000000000000000000, 1.224646799147353207E-16 ) ) ;
#201 = SHAPE_DEFINITION_REPRESENTATION ( #9, #158 ) ;
#202 = DIRECTION ( 'NONE',  ( 3.491481338843133355E-15, -1.224646799147353207E-16, 1.000000000000000000 ) ) ;
#203 = CLOSED_SHELL ( 'NONE', ( #91, #193, #70 ) ) ;
ENDSEC;
END-ISO-10303-21;
