ISO-10303-21;
HEADER;
FILE_DESCRIPTION (( 'STEP AP203' ),
    '1' );
FILE_NAME ('961248.step',
    '2021-11-25T13:47:03',
    ( '' ),
    ( '' ),
    'SwSTEP 2.0',
    'SolidWorks 2019',
    '' );
FILE_SCHEMA (( 'CONFIG_CONTROL_DESIGN' ));
ENDSEC;

DATA;
#1 = EDGE_CURVE ( 'NONE', #140, #140, #89, .T. ) ;
#2 = APPROVAL_STATUS ( 'not_yet_approved' ) ;
#3 = MECHANICAL_CONTEXT ( 'NONE', #70, 'mechanical' ) ;
#4 = LOCAL_TIME ( 14, 47, 3.000000000000000000, #106 ) ;
#5 = PERSON_AND_ORGANIZATION ( #153, #93 ) ;
#6 = ADVANCED_FACE ( 'NONE', ( #19 ), #148, .F. ) ;
#7 = CARTESIAN_POINT ( 'NONE',  ( 0.0000000000000000000, 0.0000000000000000000, 0.0000000000000000000 ) ) ;
#8 = PRODUCT_DEFINITION_SHAPE ( 'NONE', 'NONE',  #180 ) ;
#9 = CARTESIAN_POINT ( 'NONE',  ( 1.326762908760390423E-13, 8.248678804640148420E-33, 38.00000000000000000 ) ) ;
#10 = PERSON_AND_ORGANIZATION_ROLE ( 'classification_officer' ) ;
#11 = CLOSED_SHELL ( 'NONE', ( #191, #147, #92 ) ) ;
#12 = CC_DESIGN_PERSON_AND_ORGANIZATION_ASSIGNMENT ( #131, #10, ( #139 ) ) ;
#13 = DIRECTION ( 'NONE',  ( 3.491481338843133355E-15, -1.224646799147353207E-16, 1.000000000000000000 ) ) ;
#14 = CARTESIAN_POINT ( 'NONE',  ( 5.149934974793663509E-15, 1.124819836996389648E-32, 1.475000000000011857 ) ) ;
#15 = CARTESIAN_POINT ( 'NONE',  ( 0.0000000000000000000, 0.0000000000000000000, 0.0000000000000000000 ) ) ;
#16 = CALENDAR_DATE ( 2021, 25, 11 ) ;
#17 = CC_DESIGN_APPROVAL ( #88, ( #180 ) ) ;
#18 = APPROVAL_DATE_TIME ( #133, #88 ) ;
#19 = FACE_OUTER_BOUND ( 'NONE', #26, .T. ) ;
#20 = PERSON_AND_ORGANIZATION_ROLE ( 'creator' ) ;
#21 = ORIENTED_EDGE ( 'NONE', *, *, #74, .F. ) ;
#22 = CIRCLE ( 'NONE', #85, 0.02500000000000018874 ) ;
#23 = ORIENTED_EDGE ( 'NONE', *, *, #142, .T. ) ;
#24 = ADVANCED_FACE ( 'NONE', ( #39 ), #105, .F. ) ;
#25 = EDGE_LOOP ( 'NONE', ( #164 ) ) ;
#26 = EDGE_LOOP ( 'NONE', ( #21 ) ) ;
#27 = PRODUCT_RELATED_PRODUCT_CATEGORY ( 'detail', '', ( #202 ) ) ;
#28 = DIRECTION ( 'NONE',  ( 0.0000000000000000000, 1.000000000000000000, 0.0000000000000000000 ) ) ;
#29 = PLANE ( 'NONE',  #172 ) ;
#30 = CC_DESIGN_PERSON_AND_ORGANIZATION_ASSIGNMENT ( #66, #40, ( #90 ) ) ;
#31 = AXIS2_PLACEMENT_3D ( 'NONE', #15, #197, #182 ) ;
#32 = CARTESIAN_POINT ( 'NONE',  ( 1.326762908760390423E-13, 1.099999999999995426, 38.00000000000000000 ) ) ;
#33 = DATE_AND_TIME ( #65, #4 ) ;
#34 = PERSON_AND_ORGANIZATION ( #153, #93 ) ;
#35 = DESIGN_CONTEXT ( 'detailed design', #192, 'design' ) ;
#36 = AXIS2_PLACEMENT_3D ( 'NONE', #9, #194, #55 ) ;
#37 = APPROVAL_ROLE ( '' ) ;
#38 = COORDINATED_UNIVERSAL_TIME_OFFSET ( 1, 0, .AHEAD. ) ;
#39 = FACE_OUTER_BOUND ( 'NONE', #179, .T. ) ;
#40 = PERSON_AND_ORGANIZATION_ROLE ( 'design_supplier' ) ;
#41 = ORIENTED_EDGE ( 'NONE', *, *, #188, .T. ) ;
#42 = UNCERTAINTY_MEASURE_WITH_UNIT (LENGTH_MEASURE( 1.000000000000000082E-05 ), #166, 'distance_accuracy_value', 'NONE');
#43 = AXIS2_PLACEMENT_3D ( 'NONE', #45, #97, #170 ) ;
#44 = ORIENTED_EDGE ( 'NONE', *, *, #123, .F. ) ;
#45 = CARTESIAN_POINT ( 'NONE',  ( 5.149934974793662720E-15, -1.806354028742360346E-16, 1.475000000000011635 ) ) ;
#46 = APPROVAL ( #99, 'UNSPECIFIED' ) ;
#47 = LOCAL_TIME ( 14, 47, 3.000000000000000000, #159 ) ;
#48 =( NAMED_UNIT ( * ) SI_UNIT ( $, .STERADIAN. ) SOLID_ANGLE_UNIT ( ) );
#49 = CARTESIAN_POINT ( 'NONE',  ( 5.149934974793662720E-15, -1.806354028742360346E-16, 1.475000000000011635 ) ) ;
#50 = CARTESIAN_POINT ( 'NONE',  ( 5.149934974793663509E-15, 1.499999999999995337, 1.475000000000011857 ) ) ;
#51 = CC_DESIGN_SECURITY_CLASSIFICATION ( #139, ( #90 ) ) ;
#52 = DIRECTION ( 'NONE',  ( 0.0000000000000000000, 0.0000000000000000000, 1.000000000000000000 ) ) ;
#53 = MANIFOLD_SOLID_BREP ( 'Corps-Déplacer/Copier1[1]', #101 ) ;
#54 = PERSON_AND_ORGANIZATION ( #153, #93 ) ;
#55 = DIRECTION ( 'NONE',  ( 4.275831445896958607E-31, 1.000000000000000000, 1.224646799147353207E-16 ) ) ;
#56 = PERSON_AND_ORGANIZATION ( #153, #93 ) ;
#57 = CONICAL_SURFACE ( 'NONE', #168, 1.499999999999995559, 0.7853981633974427279 ) ;
#58 = DIRECTION ( 'NONE',  ( -4.275831445896958607E-31, -1.000000000000000000, -1.224646799147353207E-16 ) ) ;
#59 = CARTESIAN_POINT ( 'NONE',  ( 1.312796983405018142E-13, -4.604671964794047724E-15, 37.60000000000000142 ) ) ;
#60 = AXIS2_PLACEMENT_3D ( 'NONE', #155, #76, #125 ) ;
#61 = ADVANCED_FACE ( 'NONE', ( #141, #201 ), #121, .T. ) ;
#62 = DIRECTION ( 'NONE',  ( -3.491481338843133355E-15, 1.224646799147353207E-16, -1.000000000000000000 ) ) ;
#63 = CYLINDRICAL_SURFACE ( 'NONE', #31, 1.499999999999997780 ) ;
#64 = DIRECTION ( 'NONE',  ( -4.275831445896958607E-31, -1.000000000000000000, -1.224646799147353207E-16 ) ) ;
#65 = CALENDAR_DATE ( 2021, 25, 11 ) ;
#66 = PERSON_AND_ORGANIZATION ( #153, #93 ) ;
#67 = DATE_TIME_ROLE ( 'classification_date' ) ;
#68 = DATE_AND_TIME ( #104, #114 ) ;
#69 = ADVANCED_BREP_SHAPE_REPRESENTATION ( '961248', ( #53, #183, #160 ), #178 ) ;
#70 = APPLICATION_CONTEXT ( 'configuration controlled 3d designs of mechanical parts and assemblies' ) ;
#71 = EDGE_LOOP ( 'NONE', ( #107 ) ) ;
#72 = CC_DESIGN_DATE_AND_TIME_ASSIGNMENT ( #33, #67, ( #139 ) ) ;
#73 = VERTEX_POINT ( 'NONE', #152 ) ;
#74 = EDGE_CURVE ( 'NONE', #113, #113, #126, .T. ) ;
#75 = AXIS2_PLACEMENT_3D ( 'NONE', #95, #62, #28 ) ;
#76 = DIRECTION ( 'NONE',  ( -3.491481338843133355E-15, 1.224646799147353207E-16, -1.000000000000000000 ) ) ;
#77 = FACE_BOUND ( 'NONE', #87, .T. ) ;
#78 = APPROVAL_PERSON_ORGANIZATION ( #54, #46, #116 ) ;
#79 = DIRECTION ( 'NONE',  ( 0.0000000000000000000, 1.000000000000000000, 0.0000000000000000000 ) ) ;
#80 = CC_DESIGN_PERSON_AND_ORGANIZATION_ASSIGNMENT ( #34, #20, ( #90 ) ) ;
#81 = APPROVAL_DATE_TIME ( #190, #46 ) ;
#82 = AXIS2_PLACEMENT_3D ( 'NONE', #156, #184, #58 ) ;
#83 = PERSON_AND_ORGANIZATION_ROLE ( 'design_owner' ) ;
#84 = SECURITY_CLASSIFICATION_LEVEL ( 'unclassified' ) ;
#85 = AXIS2_PLACEMENT_3D ( 'NONE', #185, #127, #203 ) ;
#86 = ORIENTED_EDGE ( 'NONE', *, *, #1, .F. ) ;
#87 = EDGE_LOOP ( 'NONE', ( #44 ) ) ;
#88 = APPROVAL ( #2, 'UNSPECIFIED' ) ;
#89 = CIRCLE ( 'NONE', #124, 1.499999999999995559 ) ;
#90 = PRODUCT_DEFINITION_FORMATION_WITH_SPECIFIED_SOURCE ( 'ANY', '', #202, .NOT_KNOWN. ) ;
#91 = DIRECTION ( 'NONE',  ( -5.135813185032644414E-31, -1.000000000000000000, -1.445602896647343601E-16 ) ) ;
#92 = ADVANCED_FACE ( 'NONE', ( #109 ), #94, .T. ) ;
#93 = ORGANIZATION ( 'UNSPECIFIED', 'UNSPECIFIED', '' ) ;
#94 = PLANE ( 'NONE',  #82 ) ;
#95 = CARTESIAN_POINT ( 'NONE',  ( 1.326762908760390423E-13, -4.653657836759941941E-15, 38.00000000000000000 ) ) ;
#96 = DIRECTION ( 'NONE',  ( -3.491481338843133355E-15, 1.224646799147353207E-16, -1.000000000000000000 ) ) ;
#97 = DIRECTION ( 'NONE',  ( -3.491481338843133355E-15, 1.224646799147353207E-16, -1.000000000000000000 ) ) ;
#98 = ADVANCED_FACE ( 'NONE', ( #128, #181 ), #63, .T. ) ;
#99 = APPROVAL_STATUS ( 'not_yet_approved' ) ;
#100 = APPLICATION_PROTOCOL_DEFINITION ( 'international standard', 'config_control_design', 1994, #70 ) ;
#101 = CLOSED_SHELL ( 'NONE', ( #24, #98, #61, #6 ) ) ;
#102 = CIRCLE ( 'NONE', #43, 1.499999999999995559 ) ;
#103 = CC_DESIGN_DATE_AND_TIME_ASSIGNMENT ( #173, #146, ( #180 ) ) ;
#104 = CALENDAR_DATE ( 2021, 25, 11 ) ;
#105 = PLANE ( 'NONE',  #151 ) ;
#106 = COORDINATED_UNIVERSAL_TIME_OFFSET ( 1, 0, .AHEAD. ) ;
#107 = ORIENTED_EDGE ( 'NONE', *, *, #188, .F. ) ;
#108 = CC_DESIGN_APPROVAL ( #46, ( #139 ) ) ;
#109 = FACE_OUTER_BOUND ( 'NONE', #71, .T. ) ;
#110 = DIRECTION ( 'NONE',  ( -4.275831445896958607E-31, -1.000000000000000000, -1.224646799147353207E-16 ) ) ;
#111 = APPROVAL_PERSON_ORGANIZATION ( #56, #88, #37 ) ;
#112 = DIRECTION ( 'NONE',  ( 3.491481338843133355E-15, -1.224646799147353207E-16, 1.000000000000000000 ) ) ;
#113 = VERTEX_POINT ( 'NONE', #32 ) ;
#114 = LOCAL_TIME ( 14, 47, 3.000000000000000000, #38 ) ;
#115 = APPLICATION_PROTOCOL_DEFINITION ( 'international standard', 'config_control_design', 1994, #192 ) ;
#116 = APPROVAL_ROLE ( '' ) ;
#117 = EDGE_LOOP ( 'NONE', ( #86 ) ) ;
#118 = APPROVAL_PERSON_ORGANIZATION ( #5, #119, #189 ) ;
#119 = APPROVAL ( #186, 'UNSPECIFIED' ) ;
#120 = EDGE_LOOP ( 'NONE', ( #23 ) ) ;
#121 = CONICAL_SURFACE ( 'NONE', #75, 1.100000000000000089, 0.7853981633974516097 ) ;
#122 = EDGE_LOOP ( 'NONE', ( #161 ) ) ;
#123 = EDGE_CURVE ( 'NONE', #73, #73, #22, .T. ) ;
#124 = AXIS2_PLACEMENT_3D ( 'NONE', #150, #135, #176 ) ;
#125 = DIRECTION ( 'NONE',  ( 0.0000000000000000000, 1.000000000000000000, 0.0000000000000000000 ) ) ;
#126 = CIRCLE ( 'NONE', #60, 1.100000000000000089 ) ;
#127 = DIRECTION ( 'NONE',  ( -3.491481338843133355E-15, 1.224646799147353207E-16, -1.000000000000000000 ) ) ;
#128 = FACE_OUTER_BOUND ( 'NONE', #117, .T. ) ;
#129 = COORDINATED_UNIVERSAL_TIME_OFFSET ( 1, 0, .AHEAD. ) ;
#130 = CALENDAR_DATE ( 2021, 25, 11 ) ;
#131 = PERSON_AND_ORGANIZATION ( #153, #93 ) ;
#132 = ORIENTED_EDGE ( 'NONE', *, *, #1, .T. ) ;
#133 = DATE_AND_TIME ( #130, #198 ) ;
#134 = CALENDAR_DATE ( 2021, 25, 11 ) ;
#135 = DIRECTION ( 'NONE',  ( -3.491481338843133355E-15, 1.224646799147353207E-16, -1.000000000000000000 ) ) ;
#136 = CC_DESIGN_APPROVAL ( #119, ( #90 ) ) ;
#137 = VERTEX_POINT ( 'NONE', #167 ) ;
#138 = VERTEX_POINT ( 'NONE', #196 ) ;
#139 = SECURITY_CLASSIFICATION ( '', '', #84 ) ;
#140 = VERTEX_POINT ( 'NONE', #50 ) ;
#141 = FACE_OUTER_BOUND ( 'NONE', #163, .T. ) ;
#142 = EDGE_CURVE ( 'NONE', #137, #137, #145, .T. ) ;
#143 = FACE_OUTER_BOUND ( 'NONE', #122, .T. ) ;
#144 = PERSON_AND_ORGANIZATION ( #153, #93 ) ;
#145 = CIRCLE ( 'NONE', #200, 1.500000000000000222 ) ;
#146 = DATE_TIME_ROLE ( 'creation_date' ) ;
#147 = ADVANCED_FACE ( 'NONE', ( #77, #171 ), #57, .T. ) ;
#148 = PLANE ( 'NONE',  #36 ) ;
#149 = COORDINATED_UNIVERSAL_TIME_OFFSET ( 1, 0, .AHEAD. ) ;
#150 = CARTESIAN_POINT ( 'NONE',  ( 5.149934974793662720E-15, -1.806354028742360346E-16, 1.475000000000011635 ) ) ;
#151 = AXIS2_PLACEMENT_3D ( 'NONE', #14, #13, #64 ) ;
#152 = CARTESIAN_POINT ( 'NONE',  ( -3.548879674468427680E-32, 0.02500000000000018874, -1.016439536705160407E-17 ) ) ;
#153 = PERSON ( 'UNSPECIFIED', 'UNSPECIFIED', 'UNSPECIFIED', ('UNSPECIFIED'), ('UNSPECIFIED'), ('UNSPECIFIED') ) ;
#154 = CC_DESIGN_PERSON_AND_ORGANIZATION_ASSIGNMENT ( #175, #177, ( #180 ) ) ;
#155 = CARTESIAN_POINT ( 'NONE',  ( 1.326762908760390423E-13, -4.653657836759941941E-15, 38.00000000000000000 ) ) ;
#156 = CARTESIAN_POINT ( 'NONE',  ( 5.149934974793663509E-15, 1.124819836996389648E-32, 1.475000000000011857 ) ) ;
#157 = CARTESIAN_POINT ( 'NONE',  ( -2.308918767971337443E-32, 8.098596854091303811E-34, -6.613006182460004791E-18 ) ) ;
#158 = DIRECTION ( 'NONE',  ( 3.491481338843133355E-15, -1.224646799147353207E-16, 1.000000000000000000 ) ) ;
#159 = COORDINATED_UNIVERSAL_TIME_OFFSET ( 1, 0, .AHEAD. ) ;
#160 = AXIS2_PLACEMENT_3D ( 'NONE', #7, #52, #193 ) ;
#161 = ORIENTED_EDGE ( 'NONE', *, *, #123, .T. ) ;
#162 = APPROVAL_DATE_TIME ( #68, #119 ) ;
#163 = EDGE_LOOP ( 'NONE', ( #165 ) ) ;
#164 = ORIENTED_EDGE ( 'NONE', *, *, #74, .T. ) ;
#165 = ORIENTED_EDGE ( 'NONE', *, *, #142, .F. ) ;
#166 =( LENGTH_UNIT ( ) NAMED_UNIT ( * ) SI_UNIT ( .MILLI., .METRE. ) );
#167 = CARTESIAN_POINT ( 'NONE',  ( 1.312796983405018142E-13, 1.499999999999995781, 37.60000000000000142 ) ) ;
#168 = AXIS2_PLACEMENT_3D ( 'NONE', #49, #112, #91 ) ;
#169 = CC_DESIGN_PERSON_AND_ORGANIZATION_ASSIGNMENT ( #144, #83, ( #202 ) ) ;
#170 = DIRECTION ( 'NONE',  ( 5.135813185032644414E-31, 1.000000000000000000, 1.445602896647343601E-16 ) ) ;
#171 = FACE_OUTER_BOUND ( 'NONE', #195, .T. ) ;
#172 = AXIS2_PLACEMENT_3D ( 'NONE', #157, #158, #110 ) ;
#173 = DATE_AND_TIME ( #134, #187 ) ;
#174 = SHAPE_DEFINITION_REPRESENTATION ( #8, #69 ) ;
#175 = PERSON_AND_ORGANIZATION ( #153, #93 ) ;
#176 = DIRECTION ( 'NONE',  ( 5.135813185032644414E-31, 1.000000000000000000, 1.445602896647343601E-16 ) ) ;
#177 = PERSON_AND_ORGANIZATION_ROLE ( 'creator' ) ;
#178 =( GEOMETRIC_REPRESENTATION_CONTEXT ( 3 ) GLOBAL_UNCERTAINTY_ASSIGNED_CONTEXT ( ( #42 ) ) GLOBAL_UNIT_ASSIGNED_CONTEXT ( ( #166, #199, #48 ) ) REPRESENTATION_CONTEXT ( 'NONE', 'WORKASPACE' ) );
#179 = EDGE_LOOP ( 'NONE', ( #132 ) ) ;
#180 = PRODUCT_DEFINITION ( 'UNKNOWN', '', #90, #35 ) ;
#181 = FACE_OUTER_BOUND ( 'NONE', #120, .T. ) ;
#182 = DIRECTION ( 'NONE',  ( 4.275831445896959482E-31, 1.000000000000000000, 1.224646799147353207E-16 ) ) ;
#183 = MANIFOLD_SOLID_BREP ( 'Corps-Déplacer/Copier1[2]', #11 ) ;
#184 = DIRECTION ( 'NONE',  ( 3.491481338843133355E-15, -1.224646799147353207E-16, 1.000000000000000000 ) ) ;
#185 = CARTESIAN_POINT ( 'NONE',  ( -4.617837535942674886E-32, 1.619719370818260762E-33, -1.322601236492000958E-17 ) ) ;
#186 = APPROVAL_STATUS ( 'not_yet_approved' ) ;
#187 = LOCAL_TIME ( 14, 47, 3.000000000000000000, #149 ) ;
#188 = EDGE_CURVE ( 'NONE', #138, #138, #102, .T. ) ;
#189 = APPROVAL_ROLE ( '' ) ;
#190 = DATE_AND_TIME ( #16, #47 ) ;
#191 = ADVANCED_FACE ( 'NONE', ( #143 ), #29, .F. ) ;
#192 = APPLICATION_CONTEXT ( 'configuration controlled 3d designs of mechanical parts and assemblies' ) ;
#193 = DIRECTION ( 'NONE',  ( 1.000000000000000000, 0.0000000000000000000, 0.0000000000000000000 ) ) ;
#194 = DIRECTION ( 'NONE',  ( -3.491481338843133355E-15, 1.224646799147353207E-16, -1.000000000000000000 ) ) ;
#195 = EDGE_LOOP ( 'NONE', ( #41 ) ) ;
#196 = CARTESIAN_POINT ( 'NONE',  ( 5.149934974793663509E-15, 1.499999999999995337, 1.475000000000011857 ) ) ;
#197 = DIRECTION ( 'NONE',  ( -3.491481338843133355E-15, 1.224646799147353207E-16, -1.000000000000000000 ) ) ;
#198 = LOCAL_TIME ( 14, 47, 3.000000000000000000, #129 ) ;
#199 =( NAMED_UNIT ( * ) PLANE_ANGLE_UNIT ( ) SI_UNIT ( $, .RADIAN. ) );
#200 = AXIS2_PLACEMENT_3D ( 'NONE', #59, #96, #79 ) ;
#201 = FACE_BOUND ( 'NONE', #25, .T. ) ;
#202 = PRODUCT ( '961248', '961248', '', ( #3 ) ) ;
#203 = DIRECTION ( 'NONE',  ( 4.275831445896957731E-31, 1.000000000000000000, 1.224646799147353207E-16 ) ) ;
ENDSEC;
END-ISO-10303-21;
