ISO-10303-21;
HEADER;
FILE_DESCRIPTION (( 'STEP AP203' ),
    '1' );
FILE_NAME ('961247.step',
    '2021-11-25T13:42:36',
    ( '' ),
    ( '' ),
    'SwSTEP 2.0',
    'SolidWorks 2019',
    '' );
FILE_SCHEMA (( 'CONFIG_CONTROL_DESIGN' ));
ENDSEC;

DATA;
#1 = COORDINATED_UNIVERSAL_TIME_OFFSET ( 1, 0, .AHEAD. ) ;
#2 = DATE_AND_TIME ( #12, #122 ) ;
#3 = APPROVAL_STATUS ( 'not_yet_approved' ) ;
#4 = DIRECTION ( 'NONE',  ( -3.491481338843133355E-15, 1.224646799147353207E-16, -1.000000000000000000 ) ) ;
#5 = DIRECTION ( 'NONE',  ( 5.135813185032643538E-31, 1.000000000000000000, 1.445602896647343354E-16 ) ) ;
#6 = CARTESIAN_POINT ( 'NONE',  ( 0.0000000000000000000, 0.0000000000000000000, 0.0000000000000000000 ) ) ;
#7 = CARTESIAN_POINT ( 'NONE',  ( 1.326762908760390423E-13, 1.099999999999995426, 38.00000000000000000 ) ) ;
#8 = FACE_OUTER_BOUND ( 'NONE', #101, .T. ) ;
#9 = FACE_BOUND ( 'NONE', #148, .T. ) ;
#10 = DATE_AND_TIME ( #203, #189 ) ;
#11 = VERTEX_POINT ( 'NONE', #7 ) ;
#12 = CALENDAR_DATE ( 2021, 25, 11 ) ;
#13 = CIRCLE ( 'NONE', #41, 1.499999999999995781 ) ;
#14 = DATE_AND_TIME ( #139, #81 ) ;
#15 = DATE_TIME_ROLE ( 'classification_date' ) ;
#16 = AXIS2_PLACEMENT_3D ( 'NONE', #170, #51, #100 ) ;
#17 = EDGE_CURVE ( 'NONE', #94, #94, #144, .T. ) ;
#18 = CC_DESIGN_SECURITY_CLASSIFICATION ( #42, ( #65 ) ) ;
#19 = ORIENTED_EDGE ( 'NONE', *, *, #61, .T. ) ;
#20 = EDGE_CURVE ( 'NONE', #142, #142, #104, .T. ) ;
#21 = ORIENTED_EDGE ( 'NONE', *, *, #20, .T. ) ;
#22 = AXIS2_PLACEMENT_3D ( 'NONE', #202, #38, #56 ) ;
#23 = CARTESIAN_POINT ( 'NONE',  ( 5.062647941322585175E-15, -2.096124200138665243E-16, 1.450000000000011946 ) ) ;
#24 = EDGE_LOOP ( 'NONE', ( #21 ) ) ;
#25 = DIRECTION ( 'NONE',  ( 0.0000000000000000000, 0.0000000000000000000, 1.000000000000000000 ) ) ;
#26 = ORIENTED_EDGE ( 'NONE', *, *, #194, .T. ) ;
#27 = APPROVAL_STATUS ( 'not_yet_approved' ) ;
#28 = APPROVAL_ROLE ( '' ) ;
#29 = ADVANCED_FACE ( 'NONE', ( #200 ), #39, .F. ) ;
#30 = AXIS2_PLACEMENT_3D ( 'NONE', #171, #25, #85 ) ;
#31 = PRODUCT_RELATED_PRODUCT_CATEGORY ( 'detail', '', ( #165 ) ) ;
#32 = SHAPE_DEFINITION_REPRESENTATION ( #50, #73 ) ;
#33 = MANIFOLD_SOLID_BREP ( 'Corps-Déplacer/Copier1[1]', #87 ) ;
#34 = APPROVAL_PERSON_ORGANIZATION ( #123, #157, #158 ) ;
#35 = CARTESIAN_POINT ( 'NONE',  ( 5.062647941322584386E-15, -1.775737858763676707E-16, 1.450000000000011724 ) ) ;
#36 = DIRECTION ( 'NONE',  ( -3.491481338843133355E-15, 1.224646799147353207E-16, -1.000000000000000000 ) ) ;
#37 = APPROVAL_PERSON_ORGANIZATION ( #76, #69, #28 ) ;
#38 = DIRECTION ( 'NONE',  ( -3.491481338843133355E-15, 1.224646799147353207E-16, -1.000000000000000000 ) ) ;
#39 = PLANE ( 'NONE',  #174 ) ;
#40 = PERSON_AND_ORGANIZATION_ROLE ( 'design_owner' ) ;
#41 = AXIS2_PLACEMENT_3D ( 'NONE', #80, #4, #5 ) ;
#42 = SECURITY_CLASSIFICATION ( '', '', #75 ) ;
#43 =( LENGTH_UNIT ( ) NAMED_UNIT ( * ) SI_UNIT ( .MILLI., .METRE. ) );
#44 = PERSON_AND_ORGANIZATION_ROLE ( 'design_supplier' ) ;
#45 = COORDINATED_UNIVERSAL_TIME_OFFSET ( 1, 0, .AHEAD. ) ;
#46 = APPLICATION_CONTEXT ( 'configuration controlled 3d designs of mechanical parts and assemblies' ) ;
#47 = DATE_AND_TIME ( #119, #162 ) ;
#48 = ADVANCED_FACE ( 'NONE', ( #9, #196 ), #195, .T. ) ;
#49 = CARTESIAN_POINT ( 'NONE',  ( 1.312796983405018142E-13, 1.499999999999995781, 37.60000000000000142 ) ) ;
#50 = PRODUCT_DEFINITION_SHAPE ( 'NONE', 'NONE',  #190 ) ;
#51 = DIRECTION ( 'NONE',  ( 3.491481338843133355E-15, -1.224646799147353207E-16, 1.000000000000000000 ) ) ;
#52 = FACE_OUTER_BOUND ( 'NONE', #169, .T. ) ;
#53 =( NAMED_UNIT ( * ) SI_UNIT ( $, .STERADIAN. ) SOLID_ANGLE_UNIT ( ) );
#54 = DIRECTION ( 'NONE',  ( -4.275831445896958607E-31, -1.000000000000000000, -1.224646799147353207E-16 ) ) ;
#55 = ORIENTED_EDGE ( 'NONE', *, *, #20, .F. ) ;
#56 = DIRECTION ( 'NONE',  ( 0.0000000000000000000, 1.000000000000000000, 0.0000000000000000000 ) ) ;
#57 = PERSON_AND_ORGANIZATION ( #60, #192 ) ;
#58 = PLANE ( 'NONE',  #77 ) ;
#59 = PERSON_AND_ORGANIZATION ( #60, #192 ) ;
#60 = PERSON ( 'UNSPECIFIED', 'UNSPECIFIED', 'UNSPECIFIED', ('UNSPECIFIED'), ('UNSPECIFIED'), ('UNSPECIFIED') ) ;
#61 = EDGE_CURVE ( 'NONE', #111, #111, #168, .T. ) ;
#62 = CARTESIAN_POINT ( 'NONE',  ( 5.062647941322585175E-15, 1.499999999999995559, 1.450000000000011946 ) ) ;
#63 = UNCERTAINTY_MEASURE_WITH_UNIT (LENGTH_MEASURE( 1.000000000000000082E-05 ), #43, 'distance_accuracy_value', 'NONE');
#64 = FACE_OUTER_BOUND ( 'NONE', #155, .T. ) ;
#65 = PRODUCT_DEFINITION_FORMATION_WITH_SPECIFIED_SOURCE ( 'ANY', '', #165, .NOT_KNOWN. ) ;
#66 = DIRECTION ( 'NONE',  ( 5.135813185032643538E-31, 1.000000000000000000, 1.445602896647343354E-16 ) ) ;
#67 = DIRECTION ( 'NONE',  ( -3.491481338843133355E-15, 1.224646799147353207E-16, -1.000000000000000000 ) ) ;
#68 = DIRECTION ( 'NONE',  ( 4.275831445896958607E-31, 1.000000000000000000, 1.224646799147353207E-16 ) ) ;
#69 = APPROVAL ( #3, 'UNSPECIFIED' ) ;
#70 = ORIENTED_EDGE ( 'NONE', *, *, #17, .F. ) ;
#71 = EDGE_LOOP ( 'NONE', ( #137 ) ) ;
#72 = APPROVAL_DATE_TIME ( #10, #134 ) ;
#73 = ADVANCED_BREP_SHAPE_REPRESENTATION ( '961247', ( #33, #179, #30 ), #130 ) ;
#74 = AXIS2_PLACEMENT_3D ( 'NONE', #23, #115, #118 ) ;
#75 = SECURITY_CLASSIFICATION_LEVEL ( 'unclassified' ) ;
#76 = PERSON_AND_ORGANIZATION ( #60, #192 ) ;
#77 = AXIS2_PLACEMENT_3D ( 'NONE', #181, #112, #145 ) ;
#78 = AXIS2_PLACEMENT_3D ( 'NONE', #182, #36, #149 ) ;
#79 = EDGE_LOOP ( 'NONE', ( #55 ) ) ;
#80 = CARTESIAN_POINT ( 'NONE',  ( 5.062647941322584386E-15, -1.775737858763676707E-16, 1.450000000000011724 ) ) ;
#81 = LOCAL_TIME ( 14, 42, 36.00000000000000000, #1 ) ;
#82 = EDGE_LOOP ( 'NONE', ( #113 ) ) ;
#83 = PLANE ( 'NONE',  #98 ) ;
#84 = DIRECTION ( 'NONE',  ( -3.491481338843133355E-15, 1.224646799147353207E-16, -1.000000000000000000 ) ) ;
#85 = DIRECTION ( 'NONE',  ( 1.000000000000000000, 0.0000000000000000000, 0.0000000000000000000 ) ) ;
#86 = ORIENTED_EDGE ( 'NONE', *, *, #151, .F. ) ;
#87 = CLOSED_SHELL ( 'NONE', ( #164, #103, #198, #29 ) ) ;
#88 = APPROVAL_ROLE ( '' ) ;
#89 = CC_DESIGN_APPROVAL ( #157, ( #65 ) ) ;
#90 = PERSON_AND_ORGANIZATION_ROLE ( 'classification_officer' ) ;
#91 = CC_DESIGN_DATE_AND_TIME_ASSIGNMENT ( #14, #140, ( #190 ) ) ;
#92 = PERSON_AND_ORGANIZATION ( #60, #192 ) ;
#93 = AXIS2_PLACEMENT_3D ( 'NONE', #193, #126, #128 ) ;
#94 = VERTEX_POINT ( 'NONE', #49 ) ;
#95 = CC_DESIGN_APPROVAL ( #134, ( #190 ) ) ;
#96 = EDGE_LOOP ( 'NONE', ( #86 ) ) ;
#97 = CYLINDRICAL_SURFACE ( 'NONE', #129, 1.499999999999997780 ) ;
#98 = AXIS2_PLACEMENT_3D ( 'NONE', #150, #199, #54 ) ;
#99 = ORIENTED_EDGE ( 'NONE', *, *, #61, .F. ) ;
#100 = DIRECTION ( 'NONE',  ( -5.135813185032643538E-31, -1.000000000000000000, -1.445602896647343354E-16 ) ) ;
#101 = EDGE_LOOP ( 'NONE', ( #19 ) ) ;
#102 = APPLICATION_PROTOCOL_DEFINITION ( 'international standard', 'config_control_design', 1994, #180 ) ;
#103 = ADVANCED_FACE ( 'NONE', ( #183, #167 ), #97, .T. ) ;
#104 = CIRCLE ( 'NONE', #138, 1.499999999999995781 ) ;
#105 =( NAMED_UNIT ( * ) PLANE_ANGLE_UNIT ( ) SI_UNIT ( $, .RADIAN. ) );
#106 = APPROVAL_STATUS ( 'not_yet_approved' ) ;
#107 = CC_DESIGN_PERSON_AND_ORGANIZATION_ASSIGNMENT ( #59, #90, ( #42 ) ) ;
#108 = DATE_AND_TIME ( #188, #154 ) ;
#109 = AXIS2_PLACEMENT_3D ( 'NONE', #172, #84, #152 ) ;
#110 = CLOSED_SHELL ( 'NONE', ( #163, #48, #132 ) ) ;
#111 = VERTEX_POINT ( 'NONE', #127 ) ;
#112 = DIRECTION ( 'NONE',  ( 3.491481338843133355E-15, -1.224646799147353207E-16, 1.000000000000000000 ) ) ;
#113 = ORIENTED_EDGE ( 'NONE', *, *, #151, .T. ) ;
#114 = PLANE ( 'NONE',  #74 ) ;
#115 = DIRECTION ( 'NONE',  ( 3.491481338843133355E-15, -1.224646799147353207E-16, 1.000000000000000000 ) ) ;
#116 = VERTEX_POINT ( 'NONE', #121 ) ;
#117 = CC_DESIGN_PERSON_AND_ORGANIZATION_ASSIGNMENT ( #187, #40, ( #165 ) ) ;
#118 = DIRECTION ( 'NONE',  ( -4.275831445896958607E-31, -1.000000000000000000, -1.224646799147353207E-16 ) ) ;
#119 = CALENDAR_DATE ( 2021, 25, 11 ) ;
#120 = DIRECTION ( 'NONE',  ( -3.491481338843133355E-15, 1.224646799147353207E-16, -1.000000000000000000 ) ) ;
#121 = CARTESIAN_POINT ( 'NONE',  ( 5.062647941322585175E-15, 1.499999999999995559, 1.450000000000011946 ) ) ;
#122 = LOCAL_TIME ( 14, 42, 36.00000000000000000, #175 ) ;
#123 = PERSON_AND_ORGANIZATION ( #60, #192 ) ;
#124 = COORDINATED_UNIVERSAL_TIME_OFFSET ( 1, 0, .AHEAD. ) ;
#125 = CC_DESIGN_DATE_AND_TIME_ASSIGNMENT ( #108, #15, ( #42 ) ) ;
#126 = DIRECTION ( 'NONE',  ( -3.491481338843133355E-15, 1.224646799147353207E-16, -1.000000000000000000 ) ) ;
#127 = CARTESIAN_POINT ( 'NONE',  ( 0.0000000000000000000, 0.05000000000000009298, 0.0000000000000000000 ) ) ;
#128 = DIRECTION ( 'NONE',  ( 0.0000000000000000000, 1.000000000000000000, 0.0000000000000000000 ) ) ;
#129 = AXIS2_PLACEMENT_3D ( 'NONE', #6, #67, #197 ) ;
#130 =( GEOMETRIC_REPRESENTATION_CONTEXT ( 3 ) GLOBAL_UNCERTAINTY_ASSIGNED_CONTEXT ( ( #63 ) ) GLOBAL_UNIT_ASSIGNED_CONTEXT ( ( #43, #105, #53 ) ) REPRESENTATION_CONTEXT ( 'NONE', 'WORKASPACE' ) );
#131 = CARTESIAN_POINT ( 'NONE',  ( 1.326762908760390423E-13, 8.248678804640148420E-33, 38.00000000000000000 ) ) ;
#132 = ADVANCED_FACE ( 'NONE', ( #52 ), #114, .T. ) ;
#133 = APPLICATION_PROTOCOL_DEFINITION ( 'international standard', 'config_control_design', 1994, #46 ) ;
#134 = APPROVAL ( #27, 'UNSPECIFIED' ) ;
#135 = DIRECTION ( 'NONE',  ( -3.491481338843133355E-15, 1.224646799147353207E-16, -1.000000000000000000 ) ) ;
#136 = DESIGN_CONTEXT ( 'detailed design', #180, 'design' ) ;
#137 = ORIENTED_EDGE ( 'NONE', *, *, #17, .T. ) ;
#138 = AXIS2_PLACEMENT_3D ( 'NONE', #35, #120, #66 ) ;
#139 = CALENDAR_DATE ( 2021, 25, 11 ) ;
#140 = DATE_TIME_ROLE ( 'creation_date' ) ;
#141 = APPROVAL_DATE_TIME ( #47, #69 ) ;
#142 = VERTEX_POINT ( 'NONE', #62 ) ;
#143 = CC_DESIGN_PERSON_AND_ORGANIZATION_ASSIGNMENT ( #159, #44, ( #65 ) ) ;
#144 = CIRCLE ( 'NONE', #22, 1.500000000000000222 ) ;
#145 = DIRECTION ( 'NONE',  ( -4.275831445896958607E-31, -1.000000000000000000, -1.224646799147353207E-16 ) ) ;
#146 = CC_DESIGN_APPROVAL ( #69, ( #42 ) ) ;
#147 = FACE_BOUND ( 'NONE', #82, .T. ) ;
#148 = EDGE_LOOP ( 'NONE', ( #99 ) ) ;
#149 = DIRECTION ( 'NONE',  ( 4.275831445896958607E-31, 1.000000000000000000, 1.224646799147353207E-16 ) ) ;
#150 = CARTESIAN_POINT ( 'NONE',  ( -1.068957861474241595E-32, 3.749399456654650862E-34, -3.061616997868388565E-18 ) ) ;
#151 = EDGE_CURVE ( 'NONE', #11, #11, #191, .T. ) ;
#152 = DIRECTION ( 'NONE',  ( 0.0000000000000000000, 1.000000000000000000, 0.0000000000000000000 ) ) ;
#153 = MECHANICAL_CONTEXT ( 'NONE', #46, 'mechanical' ) ;
#154 = LOCAL_TIME ( 14, 42, 36.00000000000000000, #124 ) ;
#155 = EDGE_LOOP ( 'NONE', ( #70 ) ) ;
#156 = COORDINATED_UNIVERSAL_TIME_OFFSET ( 1, 0, .AHEAD. ) ;
#157 = APPROVAL ( #106, 'UNSPECIFIED' ) ;
#158 = APPROVAL_ROLE ( '' ) ;
#159 = PERSON_AND_ORGANIZATION ( #60, #192 ) ;
#160 = APPROVAL_DATE_TIME ( #2, #157 ) ;
#161 = CONICAL_SURFACE ( 'NONE', #93, 1.100000000000000089, 0.7853981633974516097 ) ;
#162 = LOCAL_TIME ( 14, 42, 36.00000000000000000, #45 ) ;
#163 = ADVANCED_FACE ( 'NONE', ( #8 ), #83, .F. ) ;
#164 = ADVANCED_FACE ( 'NONE', ( #186 ), #58, .F. ) ;
#165 = PRODUCT ( '961247', '961247', '', ( #153 ) ) ;
#166 = EDGE_LOOP ( 'NONE', ( #26 ) ) ;
#167 = FACE_OUTER_BOUND ( 'NONE', #71, .T. ) ;
#168 = CIRCLE ( 'NONE', #78, 0.05000000000000009298 ) ;
#169 = EDGE_LOOP ( 'NONE', ( #185 ) ) ;
#170 = CARTESIAN_POINT ( 'NONE',  ( 5.062647941322584386E-15, -1.775737858763676707E-16, 1.450000000000011724 ) ) ;
#171 = CARTESIAN_POINT ( 'NONE',  ( 0.0000000000000000000, 0.0000000000000000000, 0.0000000000000000000 ) ) ;
#172 = CARTESIAN_POINT ( 'NONE',  ( 1.326762908760390423E-13, -4.653657836759941941E-15, 38.00000000000000000 ) ) ;
#173 = PERSON_AND_ORGANIZATION ( #60, #192 ) ;
#174 = AXIS2_PLACEMENT_3D ( 'NONE', #131, #135, #68 ) ;
#175 = COORDINATED_UNIVERSAL_TIME_OFFSET ( 1, 0, .AHEAD. ) ;
#176 = PERSON_AND_ORGANIZATION_ROLE ( 'creator' ) ;
#177 = APPROVAL_PERSON_ORGANIZATION ( #173, #134, #88 ) ;
#178 = PERSON_AND_ORGANIZATION_ROLE ( 'creator' ) ;
#179 = MANIFOLD_SOLID_BREP ( 'Corps-Déplacer/Copier1[2]', #110 ) ;
#180 = APPLICATION_CONTEXT ( 'configuration controlled 3d designs of mechanical parts and assemblies' ) ;
#181 = CARTESIAN_POINT ( 'NONE',  ( 5.062647941322585175E-15, -2.096124200138665243E-16, 1.450000000000011946 ) ) ;
#182 = CARTESIAN_POINT ( 'NONE',  ( -2.137915722948483190E-32, 7.498798913309301724E-34, -6.123233995736777129E-18 ) ) ;
#183 = FACE_OUTER_BOUND ( 'NONE', #79, .T. ) ;
#184 = CC_DESIGN_PERSON_AND_ORGANIZATION_ASSIGNMENT ( #57, #178, ( #190 ) ) ;
#185 = ORIENTED_EDGE ( 'NONE', *, *, #194, .F. ) ;
#186 = FACE_OUTER_BOUND ( 'NONE', #24, .T. ) ;
#187 = PERSON_AND_ORGANIZATION ( #60, #192 ) ;
#188 = CALENDAR_DATE ( 2021, 25, 11 ) ;
#189 = LOCAL_TIME ( 14, 42, 36.00000000000000000, #156 ) ;
#190 = PRODUCT_DEFINITION ( 'UNKNOWN', '', #65, #136 ) ;
#191 = CIRCLE ( 'NONE', #109, 1.100000000000000089 ) ;
#192 = ORGANIZATION ( 'UNSPECIFIED', 'UNSPECIFIED', '' ) ;
#193 = CARTESIAN_POINT ( 'NONE',  ( 1.326762908760390423E-13, -4.653657836759941941E-15, 38.00000000000000000 ) ) ;
#194 = EDGE_CURVE ( 'NONE', #116, #116, #13, .T. ) ;
#195 = CONICAL_SURFACE ( 'NONE', #16, 1.499999999999995781, 0.7853981633974427279 ) ;
#196 = FACE_OUTER_BOUND ( 'NONE', #166, .T. ) ;
#197 = DIRECTION ( 'NONE',  ( 4.275831445896959482E-31, 1.000000000000000000, 1.224646799147353207E-16 ) ) ;
#198 = ADVANCED_FACE ( 'NONE', ( #64, #147 ), #161, .T. ) ;
#199 = DIRECTION ( 'NONE',  ( 3.491481338843133355E-15, -1.224646799147353207E-16, 1.000000000000000000 ) ) ;
#200 = FACE_OUTER_BOUND ( 'NONE', #96, .T. ) ;
#201 = CC_DESIGN_PERSON_AND_ORGANIZATION_ASSIGNMENT ( #92, #176, ( #65 ) ) ;
#202 = CARTESIAN_POINT ( 'NONE',  ( 1.312796983405018142E-13, -4.604671964794047724E-15, 37.60000000000000142 ) ) ;
#203 = CALENDAR_DATE ( 2021, 25, 11 ) ;
ENDSEC;
END-ISO-10303-21;
