ISO-10303-21;
HEADER;
FILE_DESCRIPTION (( 'STEP AP203' ),
    '1' );
FILE_NAME ('961246.step',
    '2021-11-25T13:42:35',
    ( '' ),
    ( '' ),
    'SwSTEP 2.0',
    'SolidWorks 2019',
    '' );
FILE_SCHEMA (( 'CONFIG_CONTROL_DESIGN' ));
ENDSEC;

DATA;
#1 = CIRCLE ( 'NONE', #177, 1.499999999999996003 ) ;
#2 = CC_DESIGN_DATE_AND_TIME_ASSIGNMENT ( #14, #77, ( #133 ) ) ;
#3 = CC_DESIGN_PERSON_AND_ORGANIZATION_ASSIGNMENT ( #190, #110, ( #191 ) ) ;
#4 = CONICAL_SURFACE ( 'NONE', #120, 1.499999999999996003, 0.7853981633974428389 ) ;
#5 = DIRECTION ( 'NONE',  ( -3.491481338843133355E-15, 1.224646799147353207E-16, -1.000000000000000000 ) ) ;
#6 = ORIENTED_EDGE ( 'NONE', *, *, #98, .F. ) ;
#7 = DIRECTION ( 'NONE',  ( 3.491481338843133355E-15, -1.224646799147353207E-16, 1.000000000000000000 ) ) ;
#8 = EDGE_LOOP ( 'NONE', ( #178 ) ) ;
#9 = ADVANCED_FACE ( 'NONE', ( #194, #45 ), #4, .T. ) ;
#10 = VERTEX_POINT ( 'NONE', #11 ) ;
#11 = CARTESIAN_POINT ( 'NONE',  ( 1.312796983405018142E-13, 1.499999999999995781, 37.60000000000000142 ) ) ;
#12 = LOCAL_TIME ( 14, 42, 35.00000000000000000, #55 ) ;
#13 = PERSON_AND_ORGANIZATION ( #35, #112 ) ;
#14 = DATE_AND_TIME ( #106, #12 ) ;
#15 = AXIS2_PLACEMENT_3D ( 'NONE', #64, #193, #44 ) ;
#16 = DIRECTION ( 'NONE',  ( -3.491481338843133355E-15, 1.224646799147353207E-16, -1.000000000000000000 ) ) ;
#17 = EDGE_LOOP ( 'NONE', ( #181 ) ) ;
#18 = ORIENTED_EDGE ( 'NONE', *, *, #137, .T. ) ;
#19 = AXIS2_PLACEMENT_3D ( 'NONE', #134, #50, #34 ) ;
#20 = CARTESIAN_POINT ( 'NONE',  ( -4.617837535942675433E-32, 1.619719370818260762E-33, -1.322601236492001112E-17 ) ) ;
#21 = CARTESIAN_POINT ( 'NONE',  ( 5.149934974793663509E-15, 1.499999999999995781, 1.475000000000011857 ) ) ;
#22 = FACE_OUTER_BOUND ( 'NONE', #17, .T. ) ;
#23 =( NAMED_UNIT ( * ) SI_UNIT ( $, .STERADIAN. ) SOLID_ANGLE_UNIT ( ) );
#24 = PERSON_AND_ORGANIZATION ( #35, #112 ) ;
#25 =( NAMED_UNIT ( * ) PLANE_ANGLE_UNIT ( ) SI_UNIT ( $, .RADIAN. ) );
#26 = SHAPE_DEFINITION_REPRESENTATION ( #128, #31 ) ;
#27 = PERSON_AND_ORGANIZATION ( #35, #112 ) ;
#28 =( GEOMETRIC_REPRESENTATION_CONTEXT ( 3 ) GLOBAL_UNCERTAINTY_ASSIGNED_CONTEXT ( ( #135 ) ) GLOBAL_UNIT_ASSIGNED_CONTEXT ( ( #136, #25, #23 ) ) REPRESENTATION_CONTEXT ( 'NONE', 'WORKASPACE' ) );
#29 = APPROVAL ( #69, 'UNSPECIFIED' ) ;
#30 = APPLICATION_CONTEXT ( 'configuration controlled 3d designs of mechanical parts and assemblies' ) ;
#31 = ADVANCED_BREP_SHAPE_REPRESENTATION ( '961246', ( #141, #72, #80 ), #28 ) ;
#32 = CARTESIAN_POINT ( 'NONE',  ( 1.326762908760390423E-13, 8.248678804640148420E-33, 38.00000000000000000 ) ) ;
#33 = CC_DESIGN_DATE_AND_TIME_ASSIGNMENT ( #123, #186, ( #92 ) ) ;
#34 = DIRECTION ( 'NONE',  ( -4.275831445896958607E-31, -1.000000000000000000, -1.224646799147353207E-16 ) ) ;
#35 = PERSON ( 'UNSPECIFIED', 'UNSPECIFIED', 'UNSPECIFIED', ('UNSPECIFIED'), ('UNSPECIFIED'), ('UNSPECIFIED') ) ;
#36 = APPLICATION_CONTEXT ( 'configuration controlled 3d designs of mechanical parts and assemblies' ) ;
#37 = EDGE_CURVE ( 'NONE', #100, #100, #53, .T. ) ;
#38 = DIRECTION ( 'NONE',  ( -3.491481338843133355E-15, 1.224646799147353207E-16, -1.000000000000000000 ) ) ;
#39 = COORDINATED_UNIVERSAL_TIME_OFFSET ( 1, 0, .AHEAD. ) ;
#40 = CC_DESIGN_PERSON_AND_ORGANIZATION_ASSIGNMENT ( #24, #148, ( #92 ) ) ;
#41 = PRODUCT_RELATED_PRODUCT_CATEGORY ( 'detail', '', ( #158 ) ) ;
#42 = ORIENTED_EDGE ( 'NONE', *, *, #37, .T. ) ;
#43 = AXIS2_PLACEMENT_3D ( 'NONE', #154, #59, #60 ) ;
#44 = DIRECTION ( 'NONE',  ( 0.0000000000000000000, 1.000000000000000000, 0.0000000000000000000 ) ) ;
#45 = FACE_OUTER_BOUND ( 'NONE', #65, .T. ) ;
#46 = EDGE_LOOP ( 'NONE', ( #129 ) ) ;
#47 = APPROVAL_PERSON_ORGANIZATION ( #27, #198, #203 ) ;
#48 = VERTEX_POINT ( 'NONE', #76 ) ;
#49 = DIRECTION ( 'NONE',  ( -5.135813185032642663E-31, -1.000000000000000000, -1.445602896647343107E-16 ) ) ;
#50 = DIRECTION ( 'NONE',  ( 3.491481338843133355E-15, -1.224646799147353207E-16, 1.000000000000000000 ) ) ;
#51 = DATE_AND_TIME ( #94, #74 ) ;
#52 = CARTESIAN_POINT ( 'NONE',  ( 1.312796983405018142E-13, -4.604671964794047724E-15, 37.60000000000000142 ) ) ;
#53 = CIRCLE ( 'NONE', #126, 1.499999999999996003 ) ;
#54 = DIRECTION ( 'NONE',  ( 4.275831445896959482E-31, 1.000000000000000000, 1.224646799147353207E-16 ) ) ;
#55 = COORDINATED_UNIVERSAL_TIME_OFFSET ( 1, 0, .AHEAD. ) ;
#56 = CARTESIAN_POINT ( 'NONE',  ( -3.548879674468427680E-32, 0.02500000000000019568, -1.016439536705160407E-17 ) ) ;
#57 = APPROVAL_ROLE ( '' ) ;
#58 = LOCAL_TIME ( 14, 42, 35.00000000000000000, #39 ) ;
#59 = DIRECTION ( 'NONE',  ( 3.491481338843133355E-15, -1.224646799147353207E-16, 1.000000000000000000 ) ) ;
#60 = DIRECTION ( 'NONE',  ( -4.275831445896958607E-31, -1.000000000000000000, -1.224646799147353207E-16 ) ) ;
#61 = CC_DESIGN_APPROVAL ( #29, ( #92 ) ) ;
#62 = CC_DESIGN_PERSON_AND_ORGANIZATION_ASSIGNMENT ( #13, #96, ( #158 ) ) ;
#63 = EDGE_LOOP ( 'NONE', ( #97 ) ) ;
#64 = CARTESIAN_POINT ( 'NONE',  ( 1.326762908760390423E-13, -4.653657836759941941E-15, 38.00000000000000000 ) ) ;
#65 = EDGE_LOOP ( 'NONE', ( #42 ) ) ;
#66 = CONICAL_SURFACE ( 'NONE', #140, 1.100000000000000089, 0.7853981633974516097 ) ;
#67 = EDGE_LOOP ( 'NONE', ( #145 ) ) ;
#68 = ADVANCED_FACE ( 'NONE', ( #75 ), #138, .F. ) ;
#69 = APPROVAL_STATUS ( 'not_yet_approved' ) ;
#70 = FACE_OUTER_BOUND ( 'NONE', #131, .T. ) ;
#71 = PERSON_AND_ORGANIZATION ( #35, #112 ) ;
#72 = MANIFOLD_SOLID_BREP ( 'Corps-Déplacer/Copier1[2]', #108 ) ;
#73 = APPLICATION_PROTOCOL_DEFINITION ( 'international standard', 'config_control_design', 1994, #36 ) ;
#74 = LOCAL_TIME ( 14, 42, 35.00000000000000000, #85 ) ;
#75 = FACE_OUTER_BOUND ( 'NONE', #91, .T. ) ;
#76 = CARTESIAN_POINT ( 'NONE',  ( 5.149934974793663509E-15, 1.499999999999995781, 1.475000000000011857 ) ) ;
#77 = DATE_TIME_ROLE ( 'classification_date' ) ;
#78 = CALENDAR_DATE ( 2021, 25, 11 ) ;
#79 = APPROVAL_STATUS ( 'not_yet_approved' ) ;
#80 = AXIS2_PLACEMENT_3D ( 'NONE', #125, #182, #149 ) ;
#81 = DIRECTION ( 'NONE',  ( 4.275831445896958607E-31, 1.000000000000000000, 1.224646799147353207E-16 ) ) ;
#82 = ORIENTED_EDGE ( 'NONE', *, *, #37, .F. ) ;
#83 = CARTESIAN_POINT ( 'NONE',  ( 5.149934974793662720E-15, -1.806354028742360346E-16, 1.475000000000011635 ) ) ;
#84 = ADVANCED_FACE ( 'NONE', ( #90 ), #111, .F. ) ;
#85 = COORDINATED_UNIVERSAL_TIME_OFFSET ( 1, 0, .AHEAD. ) ;
#86 = EDGE_LOOP ( 'NONE', ( #6 ) ) ;
#87 = CC_DESIGN_PERSON_AND_ORGANIZATION_ASSIGNMENT ( #71, #153, ( #133 ) ) ;
#88 = AXIS2_PLACEMENT_3D ( 'NONE', #52, #101, #121 ) ;
#89 = PERSON_AND_ORGANIZATION_ROLE ( 'design_supplier' ) ;
#90 = FACE_OUTER_BOUND ( 'NONE', #63, .T. ) ;
#91 = EDGE_LOOP ( 'NONE', ( #197 ) ) ;
#92 = PRODUCT_DEFINITION ( 'UNKNOWN', '', #191, #130 ) ;
#93 = DIRECTION ( 'NONE',  ( 4.275831445896958607E-31, 1.000000000000000000, 1.224646799147353207E-16 ) ) ;
#94 = CALENDAR_DATE ( 2021, 25, 11 ) ;
#95 = CIRCLE ( 'NONE', #88, 1.500000000000000222 ) ;
#96 = PERSON_AND_ORGANIZATION_ROLE ( 'design_owner' ) ;
#97 = ORIENTED_EDGE ( 'NONE', *, *, #137, .F. ) ;
#98 = EDGE_CURVE ( 'NONE', #48, #48, #1, .T. ) ;
#99 = VERTEX_POINT ( 'NONE', #168 ) ;
#100 = VERTEX_POINT ( 'NONE', #21 ) ;
#101 = DIRECTION ( 'NONE',  ( -3.491481338843133355E-15, 1.224646799147353207E-16, -1.000000000000000000 ) ) ;
#102 = DIRECTION ( 'NONE',  ( 3.491481338843133355E-15, -1.224646799147353207E-16, 1.000000000000000000 ) ) ;
#103 = APPROVAL_DATE_TIME ( #139, #167 ) ;
#104 = CALENDAR_DATE ( 2021, 25, 11 ) ;
#105 = CIRCLE ( 'NONE', #15, 1.100000000000000089 ) ;
#106 = CALENDAR_DATE ( 2021, 25, 11 ) ;
#107 = ADVANCED_FACE ( 'NONE', ( #180 ), #163, .F. ) ;
#108 = CLOSED_SHELL ( 'NONE', ( #68, #9, #152 ) ) ;
#109 = CIRCLE ( 'NONE', #114, 0.02500000000000019568 ) ;
#110 = PERSON_AND_ORGANIZATION_ROLE ( 'creator' ) ;
#111 = PLANE ( 'NONE',  #172 ) ;
#112 = ORGANIZATION ( 'UNSPECIFIED', 'UNSPECIFIED', '' ) ;
#113 = CARTESIAN_POINT ( 'NONE',  ( 5.149934974793662720E-15, -1.806354028742360346E-16, 1.475000000000011635 ) ) ;
#114 = AXIS2_PLACEMENT_3D ( 'NONE', #20, #16, #81 ) ;
#115 = EDGE_CURVE ( 'NONE', #185, #185, #109, .T. ) ;
#116 = MECHANICAL_CONTEXT ( 'NONE', #30, 'mechanical' ) ;
#117 = CARTESIAN_POINT ( 'NONE',  ( 5.149934974793662720E-15, -1.806354028742360346E-16, 1.475000000000011635 ) ) ;
#118 = APPROVAL_STATUS ( 'not_yet_approved' ) ;
#119 = CYLINDRICAL_SURFACE ( 'NONE', #196, 1.499999999999998002 ) ;
#120 = AXIS2_PLACEMENT_3D ( 'NONE', #113, #102, #49 ) ;
#121 = DIRECTION ( 'NONE',  ( 0.0000000000000000000, 1.000000000000000000, 0.0000000000000000000 ) ) ;
#122 = DIRECTION ( 'NONE',  ( 5.135813185032642663E-31, 1.000000000000000000, 1.445602896647343107E-16 ) ) ;
#123 = DATE_AND_TIME ( #201, #192 ) ;
#124 = FACE_BOUND ( 'NONE', #143, .T. ) ;
#125 = CARTESIAN_POINT ( 'NONE',  ( 0.0000000000000000000, 0.0000000000000000000, 0.0000000000000000000 ) ) ;
#126 = AXIS2_PLACEMENT_3D ( 'NONE', #117, #183, #122 ) ;
#127 = CC_DESIGN_PERSON_AND_ORGANIZATION_ASSIGNMENT ( #151, #89, ( #191 ) ) ;
#128 = PRODUCT_DEFINITION_SHAPE ( 'NONE', 'NONE',  #92 ) ;
#129 = ORIENTED_EDGE ( 'NONE', *, *, #98, .T. ) ;
#130 = DESIGN_CONTEXT ( 'detailed design', #36, 'design' ) ;
#131 = EDGE_LOOP ( 'NONE', ( #82 ) ) ;
#132 = DIRECTION ( 'NONE',  ( -4.275831445896958607E-31, -1.000000000000000000, -1.224646799147353207E-16 ) ) ;
#133 = SECURITY_CLASSIFICATION ( '', '', #156 ) ;
#134 = CARTESIAN_POINT ( 'NONE',  ( 5.149934974793663509E-15, 2.132264272554849135E-16, 1.475000000000011857 ) ) ;
#135 = UNCERTAINTY_MEASURE_WITH_UNIT (LENGTH_MEASURE( 1.000000000000000082E-05 ), #136, 'distance_accuracy_value', 'NONE');
#136 =( LENGTH_UNIT ( ) NAMED_UNIT ( * ) SI_UNIT ( .MILLI., .METRE. ) );
#137 = EDGE_CURVE ( 'NONE', #99, #99, #105, .T. ) ;
#138 = PLANE ( 'NONE',  #43 ) ;
#139 = DATE_AND_TIME ( #78, #166 ) ;
#140 = AXIS2_PLACEMENT_3D ( 'NONE', #184, #200, #202 ) ;
#141 = MANIFOLD_SOLID_BREP ( 'Corps-Déplacer/Copier1[1]', #195 ) ;
#142 = CC_DESIGN_APPROVAL ( #198, ( #191 ) ) ;
#143 = EDGE_LOOP ( 'NONE', ( #18 ) ) ;
#144 = APPROVAL_PERSON_ORGANIZATION ( #174, #167, #57 ) ;
#145 = ORIENTED_EDGE ( 'NONE', *, *, #175, .F. ) ;
#146 = PERSON_AND_ORGANIZATION ( #35, #112 ) ;
#147 = PLANE ( 'NONE',  #19 ) ;
#148 = PERSON_AND_ORGANIZATION_ROLE ( 'creator' ) ;
#149 = DIRECTION ( 'NONE',  ( 1.000000000000000000, 0.0000000000000000000, 0.0000000000000000000 ) ) ;
#150 = APPROVAL_PERSON_ORGANIZATION ( #146, #29, #164 ) ;
#151 = PERSON_AND_ORGANIZATION ( #35, #112 ) ;
#152 = ADVANCED_FACE ( 'NONE', ( #70 ), #147, .T. ) ;
#153 = PERSON_AND_ORGANIZATION_ROLE ( 'classification_officer' ) ;
#154 = CARTESIAN_POINT ( 'NONE',  ( -2.308918767971337717E-32, 8.098596854091303811E-34, -6.613006182460005561E-18 ) ) ;
#155 = AXIS2_PLACEMENT_3D ( 'NONE', #162, #7, #132 ) ;
#156 = SECURITY_CLASSIFICATION_LEVEL ( 'unclassified' ) ;
#157 = ADVANCED_FACE ( 'NONE', ( #199, #22 ), #119, .T. ) ;
#158 = PRODUCT ( '961246', '961246', '', ( #116 ) ) ;
#159 = CC_DESIGN_APPROVAL ( #167, ( #133 ) ) ;
#160 = ADVANCED_FACE ( 'NONE', ( #165, #124 ), #66, .T. ) ;
#161 = DIRECTION ( 'NONE',  ( 5.135813185032642663E-31, 1.000000000000000000, 1.445602896647343107E-16 ) ) ;
#162 = CARTESIAN_POINT ( 'NONE',  ( 5.149934974793663509E-15, 2.132264272554849135E-16, 1.475000000000011857 ) ) ;
#163 = PLANE ( 'NONE',  #155 ) ;
#164 = APPROVAL_ROLE ( '' ) ;
#165 = FACE_OUTER_BOUND ( 'NONE', #67, .T. ) ;
#166 = LOCAL_TIME ( 14, 42, 35.00000000000000000, #189 ) ;
#167 = APPROVAL ( #79, 'UNSPECIFIED' ) ;
#168 = CARTESIAN_POINT ( 'NONE',  ( 1.326762908760390423E-13, 1.099999999999995426, 38.00000000000000000 ) ) ;
#169 = APPROVAL_DATE_TIME ( #51, #29 ) ;
#170 = APPLICATION_PROTOCOL_DEFINITION ( 'international standard', 'config_control_design', 1994, #30 ) ;
#171 = DATE_AND_TIME ( #104, #58 ) ;
#172 = AXIS2_PLACEMENT_3D ( 'NONE', #32, #179, #93 ) ;
#173 = APPROVAL_DATE_TIME ( #171, #198 ) ;
#174 = PERSON_AND_ORGANIZATION ( #35, #112 ) ;
#175 = EDGE_CURVE ( 'NONE', #10, #10, #95, .T. ) ;
#176 = CC_DESIGN_SECURITY_CLASSIFICATION ( #133, ( #191 ) ) ;
#177 = AXIS2_PLACEMENT_3D ( 'NONE', #83, #5, #161 ) ;
#178 = ORIENTED_EDGE ( 'NONE', *, *, #115, .F. ) ;
#179 = DIRECTION ( 'NONE',  ( -3.491481338843133355E-15, 1.224646799147353207E-16, -1.000000000000000000 ) ) ;
#180 = FACE_OUTER_BOUND ( 'NONE', #46, .T. ) ;
#181 = ORIENTED_EDGE ( 'NONE', *, *, #175, .T. ) ;
#182 = DIRECTION ( 'NONE',  ( 0.0000000000000000000, 0.0000000000000000000, 1.000000000000000000 ) ) ;
#183 = DIRECTION ( 'NONE',  ( -3.491481338843133355E-15, 1.224646799147353207E-16, -1.000000000000000000 ) ) ;
#184 = CARTESIAN_POINT ( 'NONE',  ( 1.326762908760390423E-13, -4.653657836759941941E-15, 38.00000000000000000 ) ) ;
#185 = VERTEX_POINT ( 'NONE', #56 ) ;
#186 = DATE_TIME_ROLE ( 'creation_date' ) ;
#187 = CARTESIAN_POINT ( 'NONE',  ( 0.0000000000000000000, 0.0000000000000000000, 0.0000000000000000000 ) ) ;
#188 = COORDINATED_UNIVERSAL_TIME_OFFSET ( 1, 0, .AHEAD. ) ;
#189 = COORDINATED_UNIVERSAL_TIME_OFFSET ( 1, 0, .AHEAD. ) ;
#190 = PERSON_AND_ORGANIZATION ( #35, #112 ) ;
#191 = PRODUCT_DEFINITION_FORMATION_WITH_SPECIFIED_SOURCE ( 'ANY', '', #158, .NOT_KNOWN. ) ;
#192 = LOCAL_TIME ( 14, 42, 35.00000000000000000, #188 ) ;
#193 = DIRECTION ( 'NONE',  ( -3.491481338843133355E-15, 1.224646799147353207E-16, -1.000000000000000000 ) ) ;
#194 = FACE_BOUND ( 'NONE', #8, .T. ) ;
#195 = CLOSED_SHELL ( 'NONE', ( #107, #157, #160, #84 ) ) ;
#196 = AXIS2_PLACEMENT_3D ( 'NONE', #187, #38, #54 ) ;
#197 = ORIENTED_EDGE ( 'NONE', *, *, #115, .T. ) ;
#198 = APPROVAL ( #118, 'UNSPECIFIED' ) ;
#199 = FACE_OUTER_BOUND ( 'NONE', #86, .T. ) ;
#200 = DIRECTION ( 'NONE',  ( -3.491481338843133355E-15, 1.224646799147353207E-16, -1.000000000000000000 ) ) ;
#201 = CALENDAR_DATE ( 2021, 25, 11 ) ;
#202 = DIRECTION ( 'NONE',  ( 0.0000000000000000000, 1.000000000000000000, 0.0000000000000000000 ) ) ;
#203 = APPROVAL_ROLE ( '' ) ;
ENDSEC;
END-ISO-10303-21;
