ISO-10303-21;
HEADER;
FILE_DESCRIPTION (( 'STEP AP203' ),
    '1' );
FILE_NAME ('961245.step',
    '2021-11-24T07:09:55',
    ( '' ),
    ( '' ),
    'SwSTEP 2.0',
    'SolidWorks 2019',
    '' );
FILE_SCHEMA (( 'CONFIG_CONTROL_DESIGN' ));
ENDSEC;

DATA;
#1 = ORIENTED_EDGE ( 'NONE', *, *, #119, .F. ) ;
#2 = DESIGN_CONTEXT ( 'detailed design', #229, 'design' ) ;
#3 = DATE_AND_TIME ( #188, #207 ) ;
#4 = EDGE_LOOP ( 'NONE', ( #73 ) ) ;
#5 = DATE_TIME_ROLE ( 'creation_date' ) ;
#6 = APPROVAL_STATUS ( 'not_yet_approved' ) ;
#7 = DIRECTION ( 'NONE',  ( 0.0000000000000000000, 1.000000000000000000, 0.0000000000000000000 ) ) ;
#8 = COORDINATED_UNIVERSAL_TIME_OFFSET ( 1, 0, .AHEAD. ) ;
#9 = AXIS2_PLACEMENT_3D ( 'NONE', #19, #116, #173 ) ;
#10 = VERTEX_POINT ( 'NONE', #154 ) ;
#11 = EDGE_CURVE ( 'NONE', #180, #180, #21, .T. ) ;
#12 = PRODUCT_DEFINITION_FORMATION_WITH_SPECIFIED_SOURCE ( 'ANY', '', #153, .NOT_KNOWN. ) ;
#13 = VERTEX_POINT ( 'NONE', #157 ) ;
#14 = FACE_OUTER_BOUND ( 'NONE', #167, .T. ) ;
#15 = DIRECTION ( 'NONE',  ( -4.275831445896958607E-31, -1.000000000000000000, -1.224646799147353207E-16 ) ) ;
#16 = PRODUCT_DEFINITION ( 'UNKNOWN', '', #12, #2 ) ;
#17 = PERSON_AND_ORGANIZATION ( #89, #30 ) ;
#18 = CALENDAR_DATE ( 2021, 24, 11 ) ;
#19 = CARTESIAN_POINT ( 'NONE',  ( -5.344789307371197027E-33, 1.874699728327321796E-34, -1.530808498934191201E-18 ) ) ;
#20 = PERSON_AND_ORGANIZATION_ROLE ( 'classification_officer' ) ;
#21 = CIRCLE ( 'NONE', #155, 0.04000000000000000083 ) ;
#22 = APPROVAL_PERSON_ORGANIZATION ( #64, #108, #46 ) ;
#23 = ADVANCED_FACE ( 'NONE', ( #216 ), #198, .F. ) ;
#24 = APPROVAL_DATE_TIME ( #206, #191 ) ;
#25 = CC_DESIGN_DATE_AND_TIME_ASSIGNMENT ( #84, #87, ( #215 ) ) ;
#26 = DIRECTION ( 'NONE',  ( -3.491481338843133355E-15, 1.224646799147353207E-16, -1.000000000000000000 ) ) ;
#27 = CC_DESIGN_APPROVAL ( #108, ( #215 ) ) ;
#28 = ADVANCED_BREP_SHAPE_REPRESENTATION ( '961245', ( #117, #35, #71 ), #152 ) ;
#29 = DIRECTION ( 'NONE',  ( -4.275831445896958607E-31, -1.000000000000000000, -1.224646799147353207E-16 ) ) ;
#30 = ORGANIZATION ( 'UNSPECIFIED', 'UNSPECIFIED', '' ) ;
#31 = ORIENTED_EDGE ( 'NONE', *, *, #119, .T. ) ;
#32 = ADVANCED_FACE ( 'NONE', ( #158, #50 ), #237, .T. ) ;
#33 = ORIENTED_EDGE ( 'NONE', *, *, #110, .F. ) ;
#34 = EDGE_LOOP ( 'NONE', ( #164 ) ) ;
#35 = MANIFOLD_SOLID_BREP ( 'Corps-Déplacer/Copier1[2]', #232 ) ;
#36 = LOCAL_TIME ( 8, 9, 55.00000000000000000, #190 ) ;
#37 = AXIS2_PLACEMENT_3D ( 'NONE', #160, #53, #218 ) ;
#38 = PERSON_AND_ORGANIZATION_ROLE ( 'creator' ) ;
#39 = CARTESIAN_POINT ( 'NONE',  ( 1.187103655206665183E-14, 0.0000000000000000000, 3.399999999999999911 ) ) ;
#40 = CYLINDRICAL_SURFACE ( 'NONE', #137, 1.500000000000000000 ) ;
#41 = EDGE_CURVE ( 'NONE', #78, #78, #156, .T. ) ;
#42 = CALENDAR_DATE ( 2021, 24, 11 ) ;
#43 = DIRECTION ( 'NONE',  ( -3.491481338843133355E-15, 1.224646799147353207E-16, -1.000000000000000000 ) ) ;
#44 = AXIS2_PLACEMENT_3D ( 'NONE', #139, #72, #221 ) ;
#45 = CC_DESIGN_PERSON_AND_ORGANIZATION_ASSIGNMENT ( #115, #231, ( #16 ) ) ;
#46 = APPROVAL_ROLE ( '' ) ;
#47 = ADVANCED_FACE ( 'NONE', ( #14, #90 ), #109, .T. ) ;
#48 = LOCAL_TIME ( 8, 9, 55.00000000000000000, #171 ) ;
#49 = CARTESIAN_POINT ( 'NONE',  ( 7.862230487444336666E-15, 0.7499999999999997780, 2.251832309677876065 ) ) ;
#50 = FACE_BOUND ( 'NONE', #142, .T. ) ;
#51 = CIRCLE ( 'NONE', #197, 1.200000000000003286 ) ;
#52 = CYLINDRICAL_SURFACE ( 'NONE', #65, 0.7500000000000006661 ) ;
#53 = DIRECTION ( 'NONE',  ( -3.491481338843133355E-15, 1.224646799147353207E-16, -1.000000000000000000 ) ) ;
#54 = EDGE_LOOP ( 'NONE', ( #74 ) ) ;
#55 = ADVANCED_FACE ( 'NONE', ( #240 ), #236, .F. ) ;
#56 = ORIENTED_EDGE ( 'NONE', *, *, #11, .F. ) ;
#57 = CARTESIAN_POINT ( 'NONE',  ( 7.862230487444335088E-15, 5.624099184981962608E-33, 2.251832309677875621 ) ) ;
#58 = CC_DESIGN_APPROVAL ( #191, ( #16 ) ) ;
#59 = AXIS2_PLACEMENT_3D ( 'NONE', #68, #92, #29 ) ;
#60 = PERSON_AND_ORGANIZATION_ROLE ( 'design_owner' ) ;
#61 = CARTESIAN_POINT ( 'NONE',  ( 1.187103655206665183E-14, -4.163799117101000559E-16, 3.399999999999999911 ) ) ;
#62 = DATE_AND_TIME ( #18, #121 ) ;
#63 = CARTESIAN_POINT ( 'NONE',  ( 1.326762908760390423E-13, -4.653657836759941941E-15, 38.00000000000000000 ) ) ;
#64 = PERSON_AND_ORGANIZATION ( #89, #30 ) ;
#65 = AXIS2_PLACEMENT_3D ( 'NONE', #199, #104, #217 ) ;
#66 = CARTESIAN_POINT ( 'NONE',  ( 2.367900757518973625E-14, 1.499999999999996225, 6.781937314617162649 ) ) ;
#67 = CARTESIAN_POINT ( 'NONE',  ( 6.413747168845440264E-33, 0.04000000000000000083, 1.836970198721030365E-18 ) ) ;
#68 = CARTESIAN_POINT ( 'NONE',  ( -1.068957861474239405E-32, 3.749399456654643592E-34, -3.061616997868382402E-18 ) ) ;
#69 = AXIS2_PLACEMENT_3D ( 'NONE', #241, #181, #15 ) ;
#70 = EDGE_CURVE ( 'NONE', #13, #13, #233, .T. ) ;
#71 = AXIS2_PLACEMENT_3D ( 'NONE', #228, #192, #131 ) ;
#72 = DIRECTION ( 'NONE',  ( -3.491481338843133355E-15, 1.224646799147353207E-16, -1.000000000000000000 ) ) ;
#73 = ORIENTED_EDGE ( 'NONE', *, *, #82, .F. ) ;
#74 = ORIENTED_EDGE ( 'NONE', *, *, #41, .F. ) ;
#75 = CC_DESIGN_SECURITY_CLASSIFICATION ( #215, ( #12 ) ) ;
#76 = CC_DESIGN_PERSON_AND_ORGANIZATION_ASSIGNMENT ( #174, #133, ( #12 ) ) ;
#77 = EDGE_LOOP ( 'NONE', ( #182 ) ) ;
#78 = VERTEX_POINT ( 'NONE', #66 ) ;
#79 = ORIENTED_EDGE ( 'NONE', *, *, #70, .F. ) ;
#80 = AXIS2_PLACEMENT_3D ( 'NONE', #93, #196, #105 ) ;
#81 = DIRECTION ( 'NONE',  ( 4.275831445896959482E-31, 1.000000000000000000, 1.224646799147353207E-16 ) ) ;
#82 = EDGE_CURVE ( 'NONE', #136, #136, #179, .T. ) ;
#83 = FACE_OUTER_BOUND ( 'NONE', #203, .T. ) ;
#84 = DATE_AND_TIME ( #98, #175 ) ;
#85 = CALENDAR_DATE ( 2021, 24, 11 ) ;
#86 = DIRECTION ( 'NONE',  ( 4.355100981429076768E-31, 1.000000000000000000, 1.224646799147353207E-16 ) ) ;
#87 = DATE_TIME_ROLE ( 'classification_date' ) ;
#88 = CIRCLE ( 'NONE', #185, 0.7500000000000001110 ) ;
#89 = PERSON ( 'UNSPECIFIED', 'UNSPECIFIED', 'UNSPECIFIED', ('UNSPECIFIED'), ('UNSPECIFIED'), ('UNSPECIFIED') ) ;
#90 = FACE_BOUND ( 'NONE', #224, .T. ) ;
#91 = FACE_OUTER_BOUND ( 'NONE', #205, .T. ) ;
#92 = DIRECTION ( 'NONE',  ( 3.491481338843133355E-15, -1.224646799147353207E-16, 1.000000000000000000 ) ) ;
#93 = CARTESIAN_POINT ( 'NONE',  ( 2.367900757518973625E-14, -8.305477824363904586E-16, 6.781937314617162649 ) ) ;
#94 = ADVANCED_FACE ( 'NONE', ( #83 ), #129, .T. ) ;
#95 = ORIENTED_EDGE ( 'NONE', *, *, #183, .F. ) ;
#96 = PERSON_AND_ORGANIZATION ( #89, #30 ) ;
#97 = SHAPE_DEFINITION_REPRESENTATION ( #219, #28 ) ;
#98 = CALENDAR_DATE ( 2021, 24, 11 ) ;
#99 = AXIS2_PLACEMENT_3D ( 'NONE', #57, #113, #210 ) ;
#100 = FACE_OUTER_BOUND ( 'NONE', #223, .T. ) ;
#101 = PERSON_AND_ORGANIZATION ( #89, #30 ) ;
#102 = CC_DESIGN_PERSON_AND_ORGANIZATION_ASSIGNMENT ( #186, #20, ( #215 ) ) ;
#103 = APPLICATION_CONTEXT ( 'configuration controlled 3d designs of mechanical parts and assemblies' ) ;
#104 = DIRECTION ( 'NONE',  ( -3.491481338843133355E-15, 1.224646799147353207E-16, -1.000000000000000000 ) ) ;
#105 = DIRECTION ( 'NONE',  ( 0.0000000000000000000, 1.000000000000000000, 0.0000000000000000000 ) ) ;
#106 = DIRECTION ( 'NONE',  ( 4.275831445896958607E-31, 1.000000000000000000, 1.224646799147353207E-16 ) ) ;
#107 = EDGE_LOOP ( 'NONE', ( #124 ) ) ;
#108 = APPROVAL ( #213, 'UNSPECIFIED' ) ;
#109 = CONICAL_SURFACE ( 'NONE', #37, 1.200000000000003286, 0.7853981633974453924 ) ;
#110 = EDGE_CURVE ( 'NONE', #214, #214, #194, .T. ) ;
#111 = APPROVAL_ROLE ( '' ) ;
#112 = APPROVAL_STATUS ( 'not_yet_approved' ) ;
#113 = DIRECTION ( 'NONE',  ( 3.491481338843133355E-15, -1.224646799147353207E-16, 1.000000000000000000 ) ) ;
#114 = DATE_AND_TIME ( #85, #48 ) ;
#115 = PERSON_AND_ORGANIZATION ( #89, #30 ) ;
#116 = DIRECTION ( 'NONE',  ( 3.491481338843133355E-15, -1.224646799147353207E-16, 1.000000000000000000 ) ) ;
#117 = MANIFOLD_SOLID_BREP ( 'Corps-Déplacer/Copier1[1]', #201 ) ;
#118 = CARTESIAN_POINT ( 'NONE',  ( 1.187103655206665183E-14, 0.7500000000000006661, 3.399999999999999911 ) ) ;
#119 = EDGE_CURVE ( 'NONE', #10, #10, #51, .T. ) ;
#120 =( LENGTH_UNIT ( ) NAMED_UNIT ( * ) SI_UNIT ( .MILLI., .METRE. ) );
#121 = LOCAL_TIME ( 8, 9, 55.00000000000000000, #148 ) ;
#122 = PRODUCT_RELATED_PRODUCT_CATEGORY ( 'detail', '', ( #153 ) ) ;
#123 = DIRECTION ( 'NONE',  ( 0.0000000000000000000, 1.000000000000000000, 0.0000000000000000000 ) ) ;
#124 = ORIENTED_EDGE ( 'NONE', *, *, #183, .T. ) ;
#125 = CC_DESIGN_DATE_AND_TIME_ASSIGNMENT ( #114, #5, ( #16 ) ) ;
#126 = EDGE_LOOP ( 'NONE', ( #161 ) ) ;
#127 = PERSON_AND_ORGANIZATION ( #89, #30 ) ;
#128 = AXIS2_PLACEMENT_3D ( 'NONE', #39, #187, #86 ) ;
#129 = PLANE ( 'NONE',  #99 ) ;
#130 = CARTESIAN_POINT ( 'NONE',  ( 1.316288464743861212E-13, -4.616918432785521081E-15, 37.69999999999999574 ) ) ;
#131 = DIRECTION ( 'NONE',  ( 1.000000000000000000, 0.0000000000000000000, 0.0000000000000000000 ) ) ;
#132 = DIRECTION ( 'NONE',  ( 0.0000000000000000000, 1.000000000000000000, 0.0000000000000000000 ) ) ;
#133 = PERSON_AND_ORGANIZATION_ROLE ( 'design_supplier' ) ;
#134 = FACE_OUTER_BOUND ( 'NONE', #169, .T. ) ;
#135 = CC_DESIGN_PERSON_AND_ORGANIZATION_ASSIGNMENT ( #127, #38, ( #12 ) ) ;
#136 = VERTEX_POINT ( 'NONE', #118 ) ;
#137 = AXIS2_PLACEMENT_3D ( 'NONE', #193, #26, #81 ) ;
#138 = CC_DESIGN_PERSON_AND_ORGANIZATION_ASSIGNMENT ( #101, #60, ( #153 ) ) ;
#139 = CARTESIAN_POINT ( 'NONE',  ( 1.326762908760390423E-13, 8.998558695971103225E-33, 38.00000000000000000 ) ) ;
#140 = CARTESIAN_POINT ( 'NONE',  ( 7.862230487444336666E-15, -2.757699230263602471E-16, 2.251832309677876065 ) ) ;
#141 = ORIENTED_EDGE ( 'NONE', *, *, #41, .T. ) ;
#142 = EDGE_LOOP ( 'NONE', ( #56 ) ) ;
#143 = APPROVAL_DATE_TIME ( #62, #242 ) ;
#144 = CARTESIAN_POINT ( 'NONE',  ( 7.862230487444336666E-15, -2.757699230263602471E-16, 2.251832309677876065 ) ) ;
#145 = TOROIDAL_SURFACE ( 'NONE', #128, 8.750000000000000000, 8.000000000000000000 ) ;
#146 = APPROVAL_DATE_TIME ( #3, #108 ) ;
#147 = ADVANCED_FACE ( 'NONE', ( #100, #189 ), #145, .F. ) ;
#148 = COORDINATED_UNIVERSAL_TIME_OFFSET ( 1, 0, .AHEAD. ) ;
#149 = DIRECTION ( 'NONE',  ( -3.491481338843133355E-15, 1.224646799147353207E-16, -1.000000000000000000 ) ) ;
#150 = ADVANCED_FACE ( 'NONE', ( #227 ), #212, .F. ) ;
#151 = APPLICATION_PROTOCOL_DEFINITION ( 'international standard', 'config_control_design', 1994, #103 ) ;
#152 =( GEOMETRIC_REPRESENTATION_CONTEXT ( 3 ) GLOBAL_UNCERTAINTY_ASSIGNED_CONTEXT ( ( #165 ) ) GLOBAL_UNIT_ASSIGNED_CONTEXT ( ( #120, #178, #243 ) ) REPRESENTATION_CONTEXT ( 'NONE', 'WORKASPACE' ) );
#153 = PRODUCT ( '961245', '961245', '', ( #225 ) ) ;
#154 = CARTESIAN_POINT ( 'NONE',  ( 1.326762908760390423E-13, 1.199999999999998845, 38.00000000000000000 ) ) ;
#155 = AXIS2_PLACEMENT_3D ( 'NONE', #162, #200, #106 ) ;
#156 = CIRCLE ( 'NONE', #80, 1.499999999999996891 ) ;
#157 = CARTESIAN_POINT ( 'NONE',  ( 7.862230487444336666E-15, 0.7499999999999997780, 2.251832309677876065 ) ) ;
#158 = FACE_OUTER_BOUND ( 'NONE', #107, .T. ) ;
#159 = AXIS2_PLACEMENT_3D ( 'NONE', #130, #43, #7 ) ;
#160 = CARTESIAN_POINT ( 'NONE',  ( 1.326762908760390423E-13, -4.653657836759941941E-15, 38.00000000000000000 ) ) ;
#161 = ORIENTED_EDGE ( 'NONE', *, *, #70, .T. ) ;
#162 = CARTESIAN_POINT ( 'NONE',  ( -1.068957861474239405E-32, 3.749399456654643592E-34, -3.061616997868382402E-18 ) ) ;
#163 = ORIENTED_EDGE ( 'NONE', *, *, #110, .T. ) ;
#164 = ORIENTED_EDGE ( 'NONE', *, *, #82, .T. ) ;
#165 = UNCERTAINTY_MEASURE_WITH_UNIT (LENGTH_MEASURE( 1.000000000000000082E-05 ), #120, 'distance_accuracy_value', 'NONE');
#166 = APPROVAL_PERSON_ORGANIZATION ( #17, #242, #184 ) ;
#167 = EDGE_LOOP ( 'NONE', ( #33 ) ) ;
#168 = COORDINATED_UNIVERSAL_TIME_OFFSET ( 1, 0, .AHEAD. ) ;
#169 = EDGE_LOOP ( 'NONE', ( #163 ) ) ;
#170 = AXIS2_PLACEMENT_3D ( 'NONE', #61, #226, #132 ) ;
#171 = COORDINATED_UNIVERSAL_TIME_OFFSET ( 1, 0, .AHEAD. ) ;
#172 = ADVANCED_FACE ( 'NONE', ( #230, #134 ), #40, .T. ) ;
#173 = DIRECTION ( 'NONE',  ( -4.275831445896958607E-31, -1.000000000000000000, -1.224646799147353207E-16 ) ) ;
#174 = PERSON_AND_ORGANIZATION ( #89, #30 ) ;
#175 = LOCAL_TIME ( 8, 9, 55.00000000000000000, #8 ) ;
#176 = AXIS2_PLACEMENT_3D ( 'NONE', #140, #222, #123 ) ;
#177 = CARTESIAN_POINT ( 'NONE',  ( 1.316288464743861212E-13, 1.499999999999998668, 37.69999999999999574 ) ) ;
#178 =( NAMED_UNIT ( * ) PLANE_ANGLE_UNIT ( ) SI_UNIT ( $, .RADIAN. ) );
#179 = CIRCLE ( 'NONE', #170, 0.7500000000000011102 ) ;
#180 = VERTEX_POINT ( 'NONE', #67 ) ;
#181 = DIRECTION ( 'NONE',  ( 3.491481338843133355E-15, -1.224646799147353207E-16, 1.000000000000000000 ) ) ;
#182 = ORIENTED_EDGE ( 'NONE', *, *, #11, .T. ) ;
#183 = EDGE_CURVE ( 'NONE', #235, #235, #88, .T. ) ;
#184 = APPROVAL_ROLE ( '' ) ;
#185 = AXIS2_PLACEMENT_3D ( 'NONE', #144, #234, #195 ) ;
#186 = PERSON_AND_ORGANIZATION ( #89, #30 ) ;
#187 = DIRECTION ( 'NONE',  ( -3.491481338843133355E-15, 1.224646799147353207E-16, -1.000000000000000000 ) ) ;
#188 = CALENDAR_DATE ( 2021, 24, 11 ) ;
#189 = FACE_OUTER_BOUND ( 'NONE', #4, .T. ) ;
#190 = COORDINATED_UNIVERSAL_TIME_OFFSET ( 1, 0, .AHEAD. ) ;
#191 = APPROVAL ( #112, 'UNSPECIFIED' ) ;
#192 = DIRECTION ( 'NONE',  ( 0.0000000000000000000, 0.0000000000000000000, 1.000000000000000000 ) ) ;
#193 = CARTESIAN_POINT ( 'NONE',  ( 0.0000000000000000000, 0.0000000000000000000, 0.0000000000000000000 ) ) ;
#194 = CIRCLE ( 'NONE', #159, 1.500000000000003331 ) ;
#195 = DIRECTION ( 'NONE',  ( 0.0000000000000000000, 1.000000000000000000, 0.0000000000000000000 ) ) ;
#196 = DIRECTION ( 'NONE',  ( -3.491481338843133355E-15, 1.224646799147353207E-16, -1.000000000000000000 ) ) ;
#197 = AXIS2_PLACEMENT_3D ( 'NONE', #63, #149, #208 ) ;
#198 = PLANE ( 'NONE',  #69 ) ;
#199 = CARTESIAN_POINT ( 'NONE',  ( 0.0000000000000000000, 0.0000000000000000000, 0.0000000000000000000 ) ) ;
#200 = DIRECTION ( 'NONE',  ( -3.491481338843133355E-15, 1.224646799147353207E-16, -1.000000000000000000 ) ) ;
#201 = CLOSED_SHELL ( 'NONE', ( #23, #204, #147, #172, #47, #55 ) ) ;
#202 = EDGE_LOOP ( 'NONE', ( #1 ) ) ;
#203 = EDGE_LOOP ( 'NONE', ( #95 ) ) ;
#204 = ADVANCED_FACE ( 'NONE', ( #239, #91 ), #52, .T. ) ;
#205 = EDGE_LOOP ( 'NONE', ( #79 ) ) ;
#206 = DATE_AND_TIME ( #42, #36 ) ;
#207 = LOCAL_TIME ( 8, 9, 55.00000000000000000, #168 ) ;
#208 = DIRECTION ( 'NONE',  ( 0.0000000000000000000, 1.000000000000000000, 0.0000000000000000000 ) ) ;
#209 = APPLICATION_PROTOCOL_DEFINITION ( 'international standard', 'config_control_design', 1994, #229 ) ;
#210 = DIRECTION ( 'NONE',  ( -4.275831445896958607E-31, -1.000000000000000000, -1.224646799147353207E-16 ) ) ;
#211 = SECURITY_CLASSIFICATION_LEVEL ( 'unclassified' ) ;
#212 = PLANE ( 'NONE',  #9 ) ;
#213 = APPROVAL_STATUS ( 'not_yet_approved' ) ;
#214 = VERTEX_POINT ( 'NONE', #177 ) ;
#215 = SECURITY_CLASSIFICATION ( '', '', #211 ) ;
#216 = FACE_OUTER_BOUND ( 'NONE', #126, .T. ) ;
#217 = DIRECTION ( 'NONE',  ( 4.275831445896958607E-31, 1.000000000000000000, 1.224646799147353207E-16 ) ) ;
#218 = DIRECTION ( 'NONE',  ( 0.0000000000000000000, 1.000000000000000000, 0.0000000000000000000 ) ) ;
#219 = PRODUCT_DEFINITION_SHAPE ( 'NONE', 'NONE',  #16 ) ;
#220 = CC_DESIGN_APPROVAL ( #242, ( #12 ) ) ;
#221 = DIRECTION ( 'NONE',  ( 4.275831445896958607E-31, 1.000000000000000000, 1.224646799147353207E-16 ) ) ;
#222 = DIRECTION ( 'NONE',  ( -3.491481338843133355E-15, 1.224646799147353207E-16, -1.000000000000000000 ) ) ;
#223 = EDGE_LOOP ( 'NONE', ( #141 ) ) ;
#224 = EDGE_LOOP ( 'NONE', ( #31 ) ) ;
#225 = MECHANICAL_CONTEXT ( 'NONE', #103, 'mechanical' ) ;
#226 = DIRECTION ( 'NONE',  ( -3.491481338843133355E-15, 1.224646799147353207E-16, -1.000000000000000000 ) ) ;
#227 = FACE_OUTER_BOUND ( 'NONE', #77, .T. ) ;
#228 = CARTESIAN_POINT ( 'NONE',  ( 0.0000000000000000000, 0.0000000000000000000, 0.0000000000000000000 ) ) ;
#229 = APPLICATION_CONTEXT ( 'configuration controlled 3d designs of mechanical parts and assemblies' ) ;
#230 = FACE_OUTER_BOUND ( 'NONE', #54, .T. ) ;
#231 = PERSON_AND_ORGANIZATION_ROLE ( 'creator' ) ;
#232 = CLOSED_SHELL ( 'NONE', ( #150, #32, #94 ) ) ;
#233 = CIRCLE ( 'NONE', #176, 0.7500000000000001110 ) ;
#234 = DIRECTION ( 'NONE',  ( -3.491481338843133355E-15, 1.224646799147353207E-16, -1.000000000000000000 ) ) ;
#235 = VERTEX_POINT ( 'NONE', #49 ) ;
#236 = PLANE ( 'NONE',  #44 ) ;
#237 = CONICAL_SURFACE ( 'NONE', #59, 0.04000000000000000083, 0.3054326190990083179 ) ;
#238 = APPROVAL_PERSON_ORGANIZATION ( #96, #191, #111 ) ;
#239 = FACE_OUTER_BOUND ( 'NONE', #34, .T. ) ;
#240 = FACE_OUTER_BOUND ( 'NONE', #202, .T. ) ;
#241 = CARTESIAN_POINT ( 'NONE',  ( 7.862230487444335088E-15, 5.624099184981962608E-33, 2.251832309677875621 ) ) ;
#242 = APPROVAL ( #6, 'UNSPECIFIED' ) ;
#243 =( NAMED_UNIT ( * ) SI_UNIT ( $, .STERADIAN. ) SOLID_ANGLE_UNIT ( ) );
ENDSEC;
END-ISO-10303-21;
