ISO-10303-21;
HEADER;
FILE_DESCRIPTION (( 'STEP AP203' ),
    '1' );
FILE_NAME ('961244.step',
    '2021-11-24T06:51:34',
    ( '' ),
    ( '' ),
    'SwSTEP 2.0',
    'SolidWorks 2019',
    '' );
FILE_SCHEMA (( 'CONFIG_CONTROL_DESIGN' ));
ENDSEC;

DATA;
#1 = DATE_AND_TIME ( #242, #139 ) ;
#2 = FACE_OUTER_BOUND ( 'NONE', #159, .T. ) ;
#3 = DIRECTION ( 'NONE',  ( 1.000000000000000000, 0.0000000000000000000, 0.0000000000000000000 ) ) ;
#4 =( NAMED_UNIT ( * ) PLANE_ANGLE_UNIT ( ) SI_UNIT ( $, .RADIAN. ) );
#5 = EDGE_LOOP ( 'NONE', ( #66 ) ) ;
#6 = VERTEX_POINT ( 'NONE', #215 ) ;
#7 = ORIENTED_EDGE ( 'NONE', *, *, #135, .T. ) ;
#8 = DIRECTION ( 'NONE',  ( 3.491481338843133355E-15, -1.224646799147353207E-16, 1.000000000000000000 ) ) ;
#9 = ADVANCED_FACE ( 'NONE', ( #64, #205 ), #223, .T. ) ;
#10 = FACE_OUTER_BOUND ( 'NONE', #42, .T. ) ;
#11 = DIRECTION ( 'NONE',  ( -4.275831445896958607E-31, -1.000000000000000000, -1.224646799147353207E-16 ) ) ;
#12 = AXIS2_PLACEMENT_3D ( 'NONE', #41, #160, #3 ) ;
#13 = DIRECTION ( 'NONE',  ( 3.491481338843133355E-15, -1.224646799147353207E-16, 1.000000000000000000 ) ) ;
#14 = COORDINATED_UNIVERSAL_TIME_OFFSET ( 1, 0, .AHEAD. ) ;
#15 = CC_DESIGN_PERSON_AND_ORGANIZATION_ASSIGNMENT ( #32, #152, ( #112 ) ) ;
#16 = VERTEX_POINT ( 'NONE', #198 ) ;
#17 = CALENDAR_DATE ( 2021, 24, 11 ) ;
#18 = CARTESIAN_POINT ( 'NONE',  ( 1.326762908760390423E-13, -4.653657836759941941E-15, 38.00000000000000000 ) ) ;
#19 = CIRCLE ( 'NONE', #196, 1.200000000000003286 ) ;
#20 =( NAMED_UNIT ( * ) SI_UNIT ( $, .STERADIAN. ) SOLID_ANGLE_UNIT ( ) );
#21 = EDGE_LOOP ( 'NONE', ( #24 ) ) ;
#22 = EDGE_LOOP ( 'NONE', ( #143 ) ) ;
#23 = DIRECTION ( 'NONE',  ( 0.0000000000000000000, 1.000000000000000000, 0.0000000000000000000 ) ) ;
#24 = ORIENTED_EDGE ( 'NONE', *, *, #227, .F. ) ;
#25 = APPLICATION_CONTEXT ( 'configuration controlled 3d designs of mechanical parts and assemblies' ) ;
#26 = DIRECTION ( 'NONE',  ( -3.491481338843133355E-15, 1.224646799147353207E-16, -1.000000000000000000 ) ) ;
#27 = EDGE_LOOP ( 'NONE', ( #101 ) ) ;
#28 = FACE_OUTER_BOUND ( 'NONE', #22, .T. ) ;
#29 = CC_DESIGN_APPROVAL ( #56, ( #112 ) ) ;
#30 = DIRECTION ( 'NONE',  ( -3.491481338843133355E-15, 1.224646799147353207E-16, -1.000000000000000000 ) ) ;
#31 = CLOSED_SHELL ( 'NONE', ( #181, #105, #73, #9, #54, #169 ) ) ;
#32 = PERSON_AND_ORGANIZATION ( #82, #197 ) ;
#33 = AXIS2_PLACEMENT_3D ( 'NONE', #48, #125, #222 ) ;
#34 = DIRECTION ( 'NONE',  ( -4.275831445896958607E-31, -1.000000000000000000, -1.224646799147353207E-16 ) ) ;
#35 = DATE_AND_TIME ( #243, #126 ) ;
#36 = AXIS2_PLACEMENT_3D ( 'NONE', #185, #127, #226 ) ;
#37 = COORDINATED_UNIVERSAL_TIME_OFFSET ( 1, 0, .AHEAD. ) ;
#38 = MANIFOLD_SOLID_BREP ( 'Corps-Déplacer/Copier1[2]', #45 ) ;
#39 = VERTEX_POINT ( 'NONE', #195 ) ;
#40 = EDGE_LOOP ( 'NONE', ( #60 ) ) ;
#41 = CARTESIAN_POINT ( 'NONE',  ( 0.0000000000000000000, 0.0000000000000000000, 0.0000000000000000000 ) ) ;
#42 = EDGE_LOOP ( 'NONE', ( #238 ) ) ;
#43 = CARTESIAN_POINT ( 'NONE',  ( -1.068957861474239405E-32, 3.749399456654643592E-34, -3.061616997868382402E-18 ) ) ;
#44 = CARTESIAN_POINT ( 'NONE',  ( 0.0000000000000000000, 0.0000000000000000000, 0.0000000000000000000 ) ) ;
#45 = CLOSED_SHELL ( 'NONE', ( #170, #208, #213 ) ) ;
#46 = FACE_OUTER_BOUND ( 'NONE', #21, .T. ) ;
#47 = ORIENTED_EDGE ( 'NONE', *, *, #189, .F. ) ;
#48 = CARTESIAN_POINT ( 'NONE',  ( 2.367900757518973625E-14, -8.305477824363904586E-16, 6.781937314617162649 ) ) ;
#49 = FACE_OUTER_BOUND ( 'NONE', #180, .T. ) ;
#50 = AXIS2_PLACEMENT_3D ( 'NONE', #206, #26, #165 ) ;
#51 = LOCAL_TIME ( 7, 51, 34.00000000000000000, #37 ) ;
#52 = CC_DESIGN_PERSON_AND_ORGANIZATION_ASSIGNMENT ( #113, #92, ( #81 ) ) ;
#53 = SECURITY_CLASSIFICATION_LEVEL ( 'unclassified' ) ;
#54 = ADVANCED_FACE ( 'NONE', ( #123, #63 ), #151, .T. ) ;
#55 = PERSON_AND_ORGANIZATION ( #82, #197 ) ;
#56 = APPROVAL ( #108, 'UNSPECIFIED' ) ;
#57 = DIRECTION ( 'NONE',  ( -3.491481338843133355E-15, 1.224646799147353207E-16, -1.000000000000000000 ) ) ;
#58 = DIRECTION ( 'NONE',  ( -3.491481338843133355E-15, 1.224646799147353207E-16, -1.000000000000000000 ) ) ;
#59 = DIRECTION ( 'NONE',  ( 0.0000000000000000000, 1.000000000000000000, 0.0000000000000000000 ) ) ;
#60 = ORIENTED_EDGE ( 'NONE', *, *, #241, .T. ) ;
#61 = APPROVAL_STATUS ( 'not_yet_approved' ) ;
#62 = CC_DESIGN_PERSON_AND_ORGANIZATION_ASSIGNMENT ( #210, #74, ( #207 ) ) ;
#63 = FACE_BOUND ( 'NONE', #5, .T. ) ;
#64 = FACE_OUTER_BOUND ( 'NONE', #83, .T. ) ;
#65 = DIRECTION ( 'NONE',  ( 4.355100981429076768E-31, 1.000000000000000000, 1.224646799147353207E-16 ) ) ;
#66 = ORIENTED_EDGE ( 'NONE', *, *, #227, .T. ) ;
#67 = AXIS2_PLACEMENT_3D ( 'NONE', #172, #100, #34 ) ;
#68 = CARTESIAN_POINT ( 'NONE',  ( 0.0000000000000000000, 0.0000000000000000000, 0.0000000000000000000 ) ) ;
#69 = DIRECTION ( 'NONE',  ( -3.491481338843133355E-15, 1.224646799147353207E-16, -1.000000000000000000 ) ) ;
#70 = AXIS2_PLACEMENT_3D ( 'NONE', #168, #106, #65 ) ;
#71 = DATE_AND_TIME ( #17, #78 ) ;
#72 = PERSON_AND_ORGANIZATION ( #82, #197 ) ;
#73 = ADVANCED_FACE ( 'NONE', ( #88, #122 ), #146, .F. ) ;
#74 = PERSON_AND_ORGANIZATION_ROLE ( 'classification_officer' ) ;
#75 = VERTEX_POINT ( 'NONE', #220 ) ;
#76 = APPLICATION_CONTEXT ( 'configuration controlled 3d designs of mechanical parts and assemblies' ) ;
#77 = MECHANICAL_CONTEXT ( 'NONE', #25, 'mechanical' ) ;
#78 = LOCAL_TIME ( 7, 51, 34.00000000000000000, #110 ) ;
#79 = APPLICATION_PROTOCOL_DEFINITION ( 'international standard', 'config_control_design', 1994, #25 ) ;
#80 = EDGE_LOOP ( 'NONE', ( #217 ) ) ;
#81 = PRODUCT_DEFINITION ( 'UNKNOWN', '', #112, #218 ) ;
#82 = PERSON ( 'UNSPECIFIED', 'UNSPECIFIED', 'UNSPECIFIED', ('UNSPECIFIED'), ('UNSPECIFIED'), ('UNSPECIFIED') ) ;
#83 = EDGE_LOOP ( 'NONE', ( #85 ) ) ;
#84 = DIRECTION ( 'NONE',  ( -4.275831445896958607E-31, -1.000000000000000000, -1.224646799147353207E-16 ) ) ;
#85 = ORIENTED_EDGE ( 'NONE', *, *, #177, .F. ) ;
#86 = DIRECTION ( 'NONE',  ( 4.275831445896958607E-31, 1.000000000000000000, 1.224646799147353207E-16 ) ) ;
#87 = CC_DESIGN_DATE_AND_TIME_ASSIGNMENT ( #35, #95, ( #207 ) ) ;
#88 = FACE_OUTER_BOUND ( 'NONE', #80, .T. ) ;
#89 = DIRECTION ( 'NONE',  ( 0.0000000000000000000, 1.000000000000000000, 0.0000000000000000000 ) ) ;
#90 = APPROVAL_PERSON_ORGANIZATION ( #171, #157, #150 ) ;
#91 = UNCERTAINTY_MEASURE_WITH_UNIT (LENGTH_MEASURE( 1.000000000000000082E-05 ), #201, 'distance_accuracy_value', 'NONE');
#92 = PERSON_AND_ORGANIZATION_ROLE ( 'creator' ) ;
#93 = APPROVAL_DATE_TIME ( #1, #56 ) ;
#94 = CIRCLE ( 'NONE', #233, 1.500000000000003331 ) ;
#95 = DATE_TIME_ROLE ( 'classification_date' ) ;
#96 = LOCAL_TIME ( 7, 51, 34.00000000000000000, #231 ) ;
#97 = CARTESIAN_POINT ( 'NONE',  ( 7.862230487444336666E-15, 0.7499999999999997780, 2.251832309677876065 ) ) ;
#98 = CONICAL_SURFACE ( 'NONE', #131, 0.04000000000000000083, 0.3054326190990083179 ) ;
#99 = VERTEX_POINT ( 'NONE', #178 ) ;
#100 = DIRECTION ( 'NONE',  ( 3.491481338843133355E-15, -1.224646799147353207E-16, 1.000000000000000000 ) ) ;
#101 = ORIENTED_EDGE ( 'NONE', *, *, #200, .F. ) ;
#102 = DIRECTION ( 'NONE',  ( -3.491481338843133355E-15, 1.224646799147353207E-16, -1.000000000000000000 ) ) ;
#103 = ORIENTED_EDGE ( 'NONE', *, *, #154, .F. ) ;
#104 = CYLINDRICAL_SURFACE ( 'NONE', #187, 0.7500000000000006661 ) ;
#105 = ADVANCED_FACE ( 'NONE', ( #10, #228 ), #104, .T. ) ;
#106 = DIRECTION ( 'NONE',  ( -3.491481338843133355E-15, 1.224646799147353207E-16, -1.000000000000000000 ) ) ;
#107 = CC_DESIGN_DATE_AND_TIME_ASSIGNMENT ( #111, #230, ( #81 ) ) ;
#108 = APPROVAL_STATUS ( 'not_yet_approved' ) ;
#109 = VERTEX_POINT ( 'NONE', #97 ) ;
#110 = COORDINATED_UNIVERSAL_TIME_OFFSET ( 1, 0, .AHEAD. ) ;
#111 = DATE_AND_TIME ( #137, #96 ) ;
#112 = PRODUCT_DEFINITION_FORMATION_WITH_SPECIFIED_SOURCE ( 'ANY', '', #120, .NOT_KNOWN. ) ;
#113 = PERSON_AND_ORGANIZATION ( #82, #197 ) ;
#114 = AXIS2_PLACEMENT_3D ( 'NONE', #214, #179, #59 ) ;
#115 = DIRECTION ( 'NONE',  ( 0.0000000000000000000, 1.000000000000000000, 0.0000000000000000000 ) ) ;
#116 = VERTEX_POINT ( 'NONE', #216 ) ;
#117 = ORIENTED_EDGE ( 'NONE', *, *, #135, .F. ) ;
#118 = FACE_OUTER_BOUND ( 'NONE', #40, .T. ) ;
#119 = DIRECTION ( 'NONE',  ( -3.491481338843133355E-15, 1.224646799147353207E-16, -1.000000000000000000 ) ) ;
#120 = PRODUCT ( '961244', '961244', '', ( #77 ) ) ;
#121 = AXIS2_PLACEMENT_3D ( 'NONE', #240, #69, #89 ) ;
#122 = FACE_OUTER_BOUND ( 'NONE', #27, .T. ) ;
#123 = FACE_OUTER_BOUND ( 'NONE', #199, .T. ) ;
#124 = CC_DESIGN_PERSON_AND_ORGANIZATION_ASSIGNMENT ( #232, #163, ( #120 ) ) ;
#125 = DIRECTION ( 'NONE',  ( -3.491481338843133355E-15, 1.224646799147353207E-16, -1.000000000000000000 ) ) ;
#126 = LOCAL_TIME ( 7, 51, 34.00000000000000000, #134 ) ;
#127 = DIRECTION ( 'NONE',  ( 3.491481338843133355E-15, -1.224646799147353207E-16, 1.000000000000000000 ) ) ;
#128 = APPROVAL ( #61, 'UNSPECIFIED' ) ;
#129 = CIRCLE ( 'NONE', #162, 0.04000000000000000083 ) ;
#130 = SHAPE_DEFINITION_REPRESENTATION ( #153, #138 ) ;
#131 = AXIS2_PLACEMENT_3D ( 'NONE', #203, #8, #84 ) ;
#132 = PERSON_AND_ORGANIZATION_ROLE ( 'design_supplier' ) ;
#133 = CC_DESIGN_PERSON_AND_ORGANIZATION_ASSIGNMENT ( #55, #132, ( #112 ) ) ;
#134 = COORDINATED_UNIVERSAL_TIME_OFFSET ( 1, 0, .AHEAD. ) ;
#135 = EDGE_CURVE ( 'NONE', #75, #75, #94, .T. ) ;
#136 = PRODUCT_RELATED_PRODUCT_CATEGORY ( 'detail', '', ( #120 ) ) ;
#137 = CALENDAR_DATE ( 2021, 24, 11 ) ;
#138 = ADVANCED_BREP_SHAPE_REPRESENTATION ( '961244', ( #211, #38, #12 ), #156 ) ;
#139 = LOCAL_TIME ( 7, 51, 34.00000000000000000, #14 ) ;
#140 = EDGE_LOOP ( 'NONE', ( #7 ) ) ;
#141 = CALENDAR_DATE ( 2021, 24, 11 ) ;
#142 = DATE_AND_TIME ( #141, #51 ) ;
#143 = ORIENTED_EDGE ( 'NONE', *, *, #189, .T. ) ;
#144 = CARTESIAN_POINT ( 'NONE',  ( 1.316288464743861212E-13, -4.616918432785521081E-15, 37.69999999999999574 ) ) ;
#145 = DIRECTION ( 'NONE',  ( 4.275831445896959482E-31, 1.000000000000000000, 1.224646799147353207E-16 ) ) ;
#146 = TOROIDAL_SURFACE ( 'NONE', #70, 8.750000000000000000, 8.000000000000000000 ) ;
#147 = DIRECTION ( 'NONE',  ( -3.491481338843133355E-15, 1.224646799147353207E-16, -1.000000000000000000 ) ) ;
#148 = PLANE ( 'NONE',  #36 ) ;
#149 = APPROVAL_DATE_TIME ( #71, #157 ) ;
#150 = APPROVAL_ROLE ( '' ) ;
#151 = CONICAL_SURFACE ( 'NONE', #173, 1.200000000000003286, 0.7853981633974453924 ) ;
#152 = PERSON_AND_ORGANIZATION_ROLE ( 'creator' ) ;
#153 = PRODUCT_DEFINITION_SHAPE ( 'NONE', 'NONE',  #81 ) ;
#154 = EDGE_CURVE ( 'NONE', #99, #99, #129, .T. ) ;
#155 = AXIS2_PLACEMENT_3D ( 'NONE', #44, #119, #145 ) ;
#156 =( GEOMETRIC_REPRESENTATION_CONTEXT ( 3 ) GLOBAL_UNCERTAINTY_ASSIGNED_CONTEXT ( ( #91 ) ) GLOBAL_UNIT_ASSIGNED_CONTEXT ( ( #201, #4, #20 ) ) REPRESENTATION_CONTEXT ( 'NONE', 'WORKASPACE' ) );
#157 = APPROVAL ( #174, 'UNSPECIFIED' ) ;
#158 = APPLICATION_PROTOCOL_DEFINITION ( 'international standard', 'config_control_design', 1994, #76 ) ;
#159 = EDGE_LOOP ( 'NONE', ( #161 ) ) ;
#160 = DIRECTION ( 'NONE',  ( 0.0000000000000000000, 0.0000000000000000000, 1.000000000000000000 ) ) ;
#161 = ORIENTED_EDGE ( 'NONE', *, *, #241, .F. ) ;
#162 = AXIS2_PLACEMENT_3D ( 'NONE', #43, #166, #225 ) ;
#163 = PERSON_AND_ORGANIZATION_ROLE ( 'design_owner' ) ;
#164 = ORIENTED_EDGE ( 'NONE', *, *, #154, .T. ) ;
#165 = DIRECTION ( 'NONE',  ( 4.275831445896958607E-31, 1.000000000000000000, 1.224646799147353207E-16 ) ) ;
#166 = DIRECTION ( 'NONE',  ( -3.491481338843133355E-15, 1.224646799147353207E-16, -1.000000000000000000 ) ) ;
#167 = DIRECTION ( 'NONE',  ( 0.0000000000000000000, 1.000000000000000000, 0.0000000000000000000 ) ) ;
#168 = CARTESIAN_POINT ( 'NONE',  ( 1.187103655206665183E-14, 0.0000000000000000000, 3.399999999999999911 ) ) ;
#169 = ADVANCED_FACE ( 'NONE', ( #46 ), #239, .F. ) ;
#170 = ADVANCED_FACE ( 'NONE', ( #49 ), #148, .F. ) ;
#171 = PERSON_AND_ORGANIZATION ( #82, #197 ) ;
#172 = CARTESIAN_POINT ( 'NONE',  ( 7.862230487444335088E-15, 5.624099184981962608E-33, 2.251832309677875621 ) ) ;
#173 = AXIS2_PLACEMENT_3D ( 'NONE', #194, #58, #23 ) ;
#174 = APPROVAL_STATUS ( 'not_yet_approved' ) ;
#175 = CC_DESIGN_APPROVAL ( #157, ( #207 ) ) ;
#176 = AXIS2_PLACEMENT_3D ( 'NONE', #188, #30, #167 ) ;
#177 = EDGE_CURVE ( 'NONE', #39, #39, #182, .T. ) ;
#178 = CARTESIAN_POINT ( 'NONE',  ( 6.413747168845440264E-33, 0.04000000000000000083, 1.836970198721030365E-18 ) ) ;
#179 = DIRECTION ( 'NONE',  ( -3.491481338843133355E-15, 1.224646799147353207E-16, -1.000000000000000000 ) ) ;
#180 = EDGE_LOOP ( 'NONE', ( #164 ) ) ;
#181 = ADVANCED_FACE ( 'NONE', ( #28 ), #183, .F. ) ;
#182 = CIRCLE ( 'NONE', #33, 1.499999999999996891 ) ;
#183 = PLANE ( 'NONE',  #212 ) ;
#184 = CC_DESIGN_APPROVAL ( #128, ( #81 ) ) ;
#185 = CARTESIAN_POINT ( 'NONE',  ( -5.344789307371197027E-33, 1.874699728327321796E-34, -1.530808498934191201E-18 ) ) ;
#186 = CARTESIAN_POINT ( 'NONE',  ( 7.862230487444335088E-15, 5.624099184981962608E-33, 2.251832309677875621 ) ) ;
#187 = AXIS2_PLACEMENT_3D ( 'NONE', #68, #147, #86 ) ;
#188 = CARTESIAN_POINT ( 'NONE',  ( 7.862230487444336666E-15, -2.757699230263602471E-16, 2.251832309677876065 ) ) ;
#189 = EDGE_CURVE ( 'NONE', #6, #6, #190, .T. ) ;
#190 = CIRCLE ( 'NONE', #176, 0.7500000000000001110 ) ;
#191 = APPROVAL_ROLE ( '' ) ;
#192 = APPROVAL_DATE_TIME ( #142, #128 ) ;
#193 = PLANE ( 'NONE',  #67 ) ;
#194 = CARTESIAN_POINT ( 'NONE',  ( 1.326762908760390423E-13, -4.653657836759941941E-15, 38.00000000000000000 ) ) ;
#195 = CARTESIAN_POINT ( 'NONE',  ( 2.367900757518973625E-14, 1.499999999999996225, 6.781937314617162649 ) ) ;
#196 = AXIS2_PLACEMENT_3D ( 'NONE', #18, #57, #115 ) ;
#197 = ORGANIZATION ( 'UNSPECIFIED', 'UNSPECIFIED', '' ) ;
#198 = CARTESIAN_POINT ( 'NONE',  ( 1.326762908760390423E-13, 1.199999999999998845, 38.00000000000000000 ) ) ;
#199 = EDGE_LOOP ( 'NONE', ( #117 ) ) ;
#200 = EDGE_CURVE ( 'NONE', #116, #116, #204, .T. ) ;
#201 =( LENGTH_UNIT ( ) NAMED_UNIT ( * ) SI_UNIT ( .MILLI., .METRE. ) );
#202 = APPROVAL_PERSON_ORGANIZATION ( #72, #56, #191 ) ;
#203 = CARTESIAN_POINT ( 'NONE',  ( -1.068957861474239405E-32, 3.749399456654643592E-34, -3.061616997868382402E-18 ) ) ;
#204 = CIRCLE ( 'NONE', #121, 0.7500000000000011102 ) ;
#205 = FACE_OUTER_BOUND ( 'NONE', #140, .T. ) ;
#206 = CARTESIAN_POINT ( 'NONE',  ( 1.326762908760390423E-13, 8.998558695971103225E-33, 38.00000000000000000 ) ) ;
#207 = SECURITY_CLASSIFICATION ( '', '', #53 ) ;
#208 = ADVANCED_FACE ( 'NONE', ( #118, #237 ), #98, .T. ) ;
#209 = DIRECTION ( 'NONE',  ( 0.0000000000000000000, 1.000000000000000000, 0.0000000000000000000 ) ) ;
#210 = PERSON_AND_ORGANIZATION ( #82, #197 ) ;
#211 = MANIFOLD_SOLID_BREP ( 'Corps-Déplacer/Copier1[1]', #31 ) ;
#212 = AXIS2_PLACEMENT_3D ( 'NONE', #186, #13, #11 ) ;
#213 = ADVANCED_FACE ( 'NONE', ( #2 ), #193, .T. ) ;
#214 = CARTESIAN_POINT ( 'NONE',  ( 7.862230487444336666E-15, -2.757699230263602471E-16, 2.251832309677876065 ) ) ;
#215 = CARTESIAN_POINT ( 'NONE',  ( 7.862230487444336666E-15, 0.7499999999999997780, 2.251832309677876065 ) ) ;
#216 = CARTESIAN_POINT ( 'NONE',  ( 1.187103655206665183E-14, 0.7500000000000006661, 3.399999999999999467 ) ) ;
#217 = ORIENTED_EDGE ( 'NONE', *, *, #177, .T. ) ;
#218 = DESIGN_CONTEXT ( 'detailed design', #76, 'design' ) ;
#219 = APPROVAL_PERSON_ORGANIZATION ( #234, #128, #236 ) ;
#220 = CARTESIAN_POINT ( 'NONE',  ( 1.316288464743861212E-13, 1.499999999999998668, 37.69999999999999574 ) ) ;
#221 = EDGE_LOOP ( 'NONE', ( #103 ) ) ;
#222 = DIRECTION ( 'NONE',  ( 0.0000000000000000000, 1.000000000000000000, 0.0000000000000000000 ) ) ;
#223 = CYLINDRICAL_SURFACE ( 'NONE', #155, 1.500000000000000000 ) ;
#224 = CC_DESIGN_SECURITY_CLASSIFICATION ( #207, ( #112 ) ) ;
#225 = DIRECTION ( 'NONE',  ( 4.275831445896958607E-31, 1.000000000000000000, 1.224646799147353207E-16 ) ) ;
#226 = DIRECTION ( 'NONE',  ( -4.275831445896958607E-31, -1.000000000000000000, -1.224646799147353207E-16 ) ) ;
#227 = EDGE_CURVE ( 'NONE', #16, #16, #19, .T. ) ;
#228 = FACE_OUTER_BOUND ( 'NONE', #235, .T. ) ;
#229 = CIRCLE ( 'NONE', #114, 0.7500000000000001110 ) ;
#230 = DATE_TIME_ROLE ( 'creation_date' ) ;
#231 = COORDINATED_UNIVERSAL_TIME_OFFSET ( 1, 0, .AHEAD. ) ;
#232 = PERSON_AND_ORGANIZATION ( #82, #197 ) ;
#233 = AXIS2_PLACEMENT_3D ( 'NONE', #144, #102, #209 ) ;
#234 = PERSON_AND_ORGANIZATION ( #82, #197 ) ;
#235 = EDGE_LOOP ( 'NONE', ( #47 ) ) ;
#236 = APPROVAL_ROLE ( '' ) ;
#237 = FACE_BOUND ( 'NONE', #221, .T. ) ;
#238 = ORIENTED_EDGE ( 'NONE', *, *, #200, .T. ) ;
#239 = PLANE ( 'NONE',  #50 ) ;
#240 = CARTESIAN_POINT ( 'NONE',  ( 1.187103655206665183E-14, -4.163799117101000066E-16, 3.399999999999999467 ) ) ;
#241 = EDGE_CURVE ( 'NONE', #109, #109, #229, .T. ) ;
#242 = CALENDAR_DATE ( 2021, 24, 11 ) ;
#243 = CALENDAR_DATE ( 2021, 24, 11 ) ;
ENDSEC;
END-ISO-10303-21;
