ISO-10303-21;
HEADER;
FILE_DESCRIPTION (( 'STEP AP203' ),
    '1' );
FILE_NAME ('961243.step',
    '2021-11-24T07:09:58',
    ( '' ),
    ( '' ),
    'SwSTEP 2.0',
    'SolidWorks 2019',
    '' );
FILE_SCHEMA (( 'CONFIG_CONTROL_DESIGN' ));
ENDSEC;

DATA;
#1 = ORIENTED_EDGE ( 'NONE', *, *, #26, .F. ) ;
#2 = CONICAL_SURFACE ( 'NONE', #142, 0.04000000000000000083, 0.3490658503988666728 ) ;
#3 = EDGE_CURVE ( 'NONE', #161, #161, #138, .T. ) ;
#4 = AXIS2_PLACEMENT_3D ( 'NONE', #186, #54, #240 ) ;
#5 = CARTESIAN_POINT ( 'NONE',  ( 0.0000000000000000000, 0.0000000000000000000, 0.0000000000000000000 ) ) ;
#6 = APPROVAL_ROLE ( '' ) ;
#7 = APPROVAL_DATE_TIME ( #119, #170 ) ;
#8 = LOCAL_TIME ( 8, 9, 58.00000000000000000, #156 ) ;
#9 = DATE_AND_TIME ( #176, #31 ) ;
#10 = CIRCLE ( 'NONE', #56, 1.200000000000003286 ) ;
#11 = PERSON_AND_ORGANIZATION ( #12, #233 ) ;
#12 = PERSON ( 'UNSPECIFIED', 'UNSPECIFIED', 'UNSPECIFIED', ('UNSPECIFIED'), ('UNSPECIFIED'), ('UNSPECIFIED') ) ;
#13 = DIRECTION ( 'NONE',  ( -3.491481338843133355E-15, 1.224646799147353207E-16, -1.000000000000000000 ) ) ;
#14 = APPROVAL ( #105, 'UNSPECIFIED' ) ;
#15 = APPLICATION_CONTEXT ( 'configuration controlled 3d designs of mechanical parts and assemblies' ) ;
#16 = CARTESIAN_POINT ( 'NONE',  ( 2.298071130742110643E-14, 1.499999999999996225, 6.581937314617161583 ) ) ;
#17 = DIRECTION ( 'NONE',  ( -3.491481338843133355E-15, 1.224646799147353207E-16, -1.000000000000000000 ) ) ;
#18 =( NAMED_UNIT ( * ) SI_UNIT ( $, .STERADIAN. ) SOLID_ANGLE_UNIT ( ) );
#19 = EDGE_LOOP ( 'NONE', ( #206 ) ) ;
#20 = DIRECTION ( 'NONE',  ( -3.491481338843133355E-15, 1.224646799147353207E-16, -1.000000000000000000 ) ) ;
#21 = CARTESIAN_POINT ( 'NONE',  ( 2.298071130742110643E-14, -8.060548464534433501E-16, 6.581937314617161583 ) ) ;
#22 = LOCAL_TIME ( 8, 9, 58.00000000000000000, #214 ) ;
#23 = DIRECTION ( 'NONE',  ( -3.491481338843133355E-15, 1.224646799147353207E-16, -1.000000000000000000 ) ) ;
#24 = APPROVAL_PERSON_ORGANIZATION ( #68, #113, #143 ) ;
#25 = AXIS2_PLACEMENT_3D ( 'NONE', #204, #35, #162 ) ;
#26 = EDGE_CURVE ( 'NONE', #70, #70, #177, .T. ) ;
#27 = PRODUCT_RELATED_PRODUCT_CATEGORY ( 'detail', '', ( #173 ) ) ;
#28 = PERSON_AND_ORGANIZATION ( #12, #233 ) ;
#29 = PERSON_AND_ORGANIZATION ( #12, #233 ) ;
#30 = PERSON_AND_ORGANIZATION_ROLE ( 'design_owner' ) ;
#31 = LOCAL_TIME ( 8, 9, 58.00000000000000000, #157 ) ;
#32 = APPLICATION_PROTOCOL_DEFINITION ( 'international standard', 'config_control_design', 1994, #15 ) ;
#33 = CARTESIAN_POINT ( 'NONE',  ( 1.326762908760390423E-13, -4.653657836759941941E-15, 38.00000000000000000 ) ) ;
#34 = ADVANCED_FACE ( 'NONE', ( #224, #135 ), #133, .T. ) ;
#35 = DIRECTION ( 'NONE',  ( -3.491481338843133355E-15, 1.224646799147353207E-16, -1.000000000000000000 ) ) ;
#36 = DIRECTION ( 'NONE',  ( 4.275831445896959482E-31, 1.000000000000000000, 1.224646799147353207E-16 ) ) ;
#37 =( NAMED_UNIT ( * ) PLANE_ANGLE_UNIT ( ) SI_UNIT ( $, .RADIAN. ) );
#38 = AXIS2_PLACEMENT_3D ( 'NONE', #33, #20, #217 ) ;
#39 = ORIENTED_EDGE ( 'NONE', *, *, #102, .F. ) ;
#40 = DIRECTION ( 'NONE',  ( 3.491481338843133355E-15, -1.224646799147353207E-16, 1.000000000000000000 ) ) ;
#41 = PLANE ( 'NONE',  #123 ) ;
#42 = DIRECTION ( 'NONE',  ( 0.0000000000000000000, 1.000000000000000000, 0.0000000000000000000 ) ) ;
#43 = CC_DESIGN_DATE_AND_TIME_ASSIGNMENT ( #84, #194, ( #137 ) ) ;
#44 = TOROIDAL_SURFACE ( 'NONE', #57, 8.750000000000000000, 8.000000000000000000 ) ;
#45 = DATE_TIME_ROLE ( 'creation_date' ) ;
#46 = CALENDAR_DATE ( 2021, 24, 11 ) ;
#47 = CONICAL_SURFACE ( 'NONE', #38, 1.200000000000003286, 0.7853981633974453924 ) ;
#48 = APPLICATION_PROTOCOL_DEFINITION ( 'international standard', 'config_control_design', 1994, #66 ) ;
#49 = EDGE_CURVE ( 'NONE', #241, #241, #197, .T. ) ;
#50 = CARTESIAN_POINT ( 'NONE',  ( -1.068957861474239268E-32, 3.749399456654642737E-34, -3.061616997868382016E-18 ) ) ;
#51 = ORIENTED_EDGE ( 'NONE', *, *, #146, .T. ) ;
#52 = CYLINDRICAL_SURFACE ( 'NONE', #158, 1.500000000000000000 ) ;
#53 =( LENGTH_UNIT ( ) NAMED_UNIT ( * ) SI_UNIT ( .MILLI., .METRE. ) );
#54 = DIRECTION ( 'NONE',  ( -3.491481338843133355E-15, 1.224646799147353207E-16, -1.000000000000000000 ) ) ;
#55 = FACE_OUTER_BOUND ( 'NONE', #112, .T. ) ;
#56 = AXIS2_PLACEMENT_3D ( 'NONE', #61, #23, #238 ) ;
#57 = AXIS2_PLACEMENT_3D ( 'NONE', #94, #13, #225 ) ;
#58 = DIRECTION ( 'NONE',  ( -3.491481338843133355E-15, 1.224646799147353207E-16, -1.000000000000000000 ) ) ;
#59 = CARTESIAN_POINT ( 'NONE',  ( 1.326762908760390423E-13, 8.998558695971103225E-33, 38.00000000000000000 ) ) ;
#60 = DESIGN_CONTEXT ( 'detailed design', #66, 'design' ) ;
#61 = CARTESIAN_POINT ( 'NONE',  ( 1.326762908760390423E-13, -4.653657836759941941E-15, 38.00000000000000000 ) ) ;
#62 = ADVANCED_FACE ( 'NONE', ( #148 ), #41, .T. ) ;
#63 = LOCAL_TIME ( 8, 9, 58.00000000000000000, #120 ) ;
#64 = AXIS2_PLACEMENT_3D ( 'NONE', #108, #58, #208 ) ;
#65 = CALENDAR_DATE ( 2021, 24, 11 ) ;
#66 = APPLICATION_CONTEXT ( 'configuration controlled 3d designs of mechanical parts and assemblies' ) ;
#67 = ORIENTED_EDGE ( 'NONE', *, *, #139, .F. ) ;
#68 = PERSON_AND_ORGANIZATION ( #12, #233 ) ;
#69 = APPROVAL_DATE_TIME ( #234, #113 ) ;
#70 = VERTEX_POINT ( 'NONE', #90 ) ;
#71 = FACE_BOUND ( 'NONE', #163, .T. ) ;
#72 = VERTEX_POINT ( 'NONE', #76 ) ;
#73 = DIRECTION ( 'NONE',  ( -3.491481338843133355E-15, 1.224646799147353207E-16, -1.000000000000000000 ) ) ;
#74 = FACE_OUTER_BOUND ( 'NONE', #136, .T. ) ;
#75 = ORIENTED_EDGE ( 'NONE', *, *, #146, .F. ) ;
#76 = CARTESIAN_POINT ( 'NONE',  ( 1.326762908760390423E-13, 1.199999999999998845, 38.00000000000000000 ) ) ;
#77 = FACE_OUTER_BOUND ( 'NONE', #168, .T. ) ;
#78 = EDGE_CURVE ( 'NONE', #72, #72, #10, .T. ) ;
#79 = CARTESIAN_POINT ( 'NONE',  ( 0.0000000000000000000, 0.0000000000000000000, 0.0000000000000000000 ) ) ;
#80 = CIRCLE ( 'NONE', #25, 1.500000000000003331 ) ;
#81 = PERSON_AND_ORGANIZATION ( #12, #233 ) ;
#82 = ADVANCED_FACE ( 'NONE', ( #77 ), #228, .F. ) ;
#83 = PERSON_AND_ORGANIZATION_ROLE ( 'classification_officer' ) ;
#84 = DATE_AND_TIME ( #144, #63 ) ;
#85 = CC_DESIGN_APPROVAL ( #170, ( #116 ) ) ;
#86 = LOCAL_TIME ( 8, 9, 58.00000000000000000, #101 ) ;
#87 = APPROVAL_STATUS ( 'not_yet_approved' ) ;
#88 = PERSON_AND_ORGANIZATION ( #12, #233 ) ;
#89 = FACE_OUTER_BOUND ( 'NONE', #203, .T. ) ;
#90 = CARTESIAN_POINT ( 'NONE',  ( 6.810863958632262388E-15, 0.7499999999999997780, 1.950708967812777139 ) ) ;
#91 = CARTESIAN_POINT ( 'NONE',  ( -1.068957861474239268E-32, 3.749399456654642737E-34, -3.061616997868382016E-18 ) ) ;
#92 = DIRECTION ( 'NONE',  ( -3.491481338843133355E-15, 1.224646799147353207E-16, -1.000000000000000000 ) ) ;
#93 = ORIENTED_EDGE ( 'NONE', *, *, #49, .T. ) ;
#94 = CARTESIAN_POINT ( 'NONE',  ( 1.117274028429802674E-14, 0.0000000000000000000, 3.200000000000000178 ) ) ;
#95 = SHAPE_DEFINITION_REPRESENTATION ( #219, #198 ) ;
#96 = CARTESIAN_POINT ( 'NONE',  ( 6.810863958632262388E-15, -5.639901068772183758E-16, 1.950708967812777139 ) ) ;
#97 = AXIS2_PLACEMENT_3D ( 'NONE', #21, #205, #42 ) ;
#98 = ADVANCED_FACE ( 'NONE', ( #154, #182 ), #52, .T. ) ;
#99 = ORIENTED_EDGE ( 'NONE', *, *, #78, .F. ) ;
#100 = AXIS2_PLACEMENT_3D ( 'NONE', #223, #164, #202 ) ;
#101 = COORDINATED_UNIVERSAL_TIME_OFFSET ( 1, 0, .AHEAD. ) ;
#102 = EDGE_CURVE ( 'NONE', #145, #145, #190, .T. ) ;
#103 = PERSON_AND_ORGANIZATION_ROLE ( 'design_supplier' ) ;
#104 = APPROVAL_STATUS ( 'not_yet_approved' ) ;
#105 = APPROVAL_STATUS ( 'not_yet_approved' ) ;
#106 = CC_DESIGN_APPROVAL ( #113, ( #137 ) ) ;
#107 = FACE_BOUND ( 'NONE', #201, .T. ) ;
#108 = CARTESIAN_POINT ( 'NONE',  ( 6.810863958632262388E-15, -2.388929493499955095E-16, 1.950708967812777139 ) ) ;
#109 = AXIS2_PLACEMENT_3D ( 'NONE', #185, #237, #150 ) ;
#110 = EDGE_LOOP ( 'NONE', ( #67 ) ) ;
#111 = FACE_OUTER_BOUND ( 'NONE', #110, .T. ) ;
#112 = EDGE_LOOP ( 'NONE', ( #184 ) ) ;
#113 = APPROVAL ( #87, 'UNSPECIFIED' ) ;
#114 = DIRECTION ( 'NONE',  ( -4.275831445896958607E-31, -1.000000000000000000, -1.224646799147353207E-16 ) ) ;
#115 = AXIS2_PLACEMENT_3D ( 'NONE', #79, #153, #130 ) ;
#116 = PRODUCT_DEFINITION_FORMATION_WITH_SPECIFIED_SOURCE ( 'ANY', '', #173, .NOT_KNOWN. ) ;
#117 = ORIENTED_EDGE ( 'NONE', *, *, #49, .F. ) ;
#118 = ADVANCED_FACE ( 'NONE', ( #111, #107 ), #47, .T. ) ;
#119 = DATE_AND_TIME ( #46, #8 ) ;
#120 = COORDINATED_UNIVERSAL_TIME_OFFSET ( 1, 0, .AHEAD. ) ;
#121 = SECURITY_CLASSIFICATION_LEVEL ( 'unclassified' ) ;
#122 = ORIENTED_EDGE ( 'NONE', *, *, #26, .T. ) ;
#123 = AXIS2_PLACEMENT_3D ( 'NONE', #96, #243, #114 ) ;
#124 = VERTEX_POINT ( 'NONE', #149 ) ;
#125 = CARTESIAN_POINT ( 'NONE',  ( 1.117274028429802674E-14, -3.918869757271530460E-16, 3.200000000000000178 ) ) ;
#126 = CC_DESIGN_DATE_AND_TIME_ASSIGNMENT ( #9, #45, ( #160 ) ) ;
#127 = ORIENTED_EDGE ( 'NONE', *, *, #139, .T. ) ;
#128 = MANIFOLD_SOLID_BREP ( 'Corps-Déplacer/Copier1[1]', #242 ) ;
#129 = CARTESIAN_POINT ( 'NONE',  ( 0.0000000000000000000, 0.0000000000000000000, 0.0000000000000000000 ) ) ;
#130 = DIRECTION ( 'NONE',  ( 4.275831445896958607E-31, 1.000000000000000000, 1.224646799147353207E-16 ) ) ;
#131 = PLANE ( 'NONE',  #109 ) ;
#132 = AXIS2_PLACEMENT_3D ( 'NONE', #125, #92, #200 ) ;
#133 = CYLINDRICAL_SURFACE ( 'NONE', #115, 0.7500000000000005551 ) ;
#134 = EDGE_LOOP ( 'NONE', ( #51 ) ) ;
#135 = FACE_OUTER_BOUND ( 'NONE', #19, .T. ) ;
#136 = EDGE_LOOP ( 'NONE', ( #93 ) ) ;
#137 = SECURITY_CLASSIFICATION ( '', '', #121 ) ;
#138 = CIRCLE ( 'NONE', #64, 0.7500000000000000000 ) ;
#139 = EDGE_CURVE ( 'NONE', #124, #124, #80, .T. ) ;
#140 = CC_DESIGN_PERSON_AND_ORGANIZATION_ASSIGNMENT ( #174, #83, ( #137 ) ) ;
#141 = APPROVAL_DATE_TIME ( #216, #14 ) ;
#142 = AXIS2_PLACEMENT_3D ( 'NONE', #50, #40, #181 ) ;
#143 = APPROVAL_ROLE ( '' ) ;
#144 = CALENDAR_DATE ( 2021, 24, 11 ) ;
#145 = VERTEX_POINT ( 'NONE', #221 ) ;
#146 = EDGE_CURVE ( 'NONE', #147, #147, #213, .T. ) ;
#147 = VERTEX_POINT ( 'NONE', #199 ) ;
#148 = FACE_OUTER_BOUND ( 'NONE', #229, .T. ) ;
#149 = CARTESIAN_POINT ( 'NONE',  ( 1.316288464743861212E-13, 1.499999999999998668, 37.69999999999999574 ) ) ;
#150 = DIRECTION ( 'NONE',  ( -4.275831445896958607E-31, -1.000000000000000000, -1.224646799147353207E-16 ) ) ;
#151 = AXIS2_PLACEMENT_3D ( 'NONE', #59, #169, #220 ) ;
#152 = AXIS2_PLACEMENT_3D ( 'NONE', #5, #175, #196 ) ;
#153 = DIRECTION ( 'NONE',  ( -3.491481338843133355E-15, 1.224646799147353207E-16, -1.000000000000000000 ) ) ;
#154 = FACE_OUTER_BOUND ( 'NONE', #191, .T. ) ;
#155 = CC_DESIGN_APPROVAL ( #14, ( #160 ) ) ;
#156 = COORDINATED_UNIVERSAL_TIME_OFFSET ( 1, 0, .AHEAD. ) ;
#157 = COORDINATED_UNIVERSAL_TIME_OFFSET ( 1, 0, .AHEAD. ) ;
#158 = AXIS2_PLACEMENT_3D ( 'NONE', #129, #17, #36 ) ;
#159 = CALENDAR_DATE ( 2021, 24, 11 ) ;
#160 = PRODUCT_DEFINITION ( 'UNKNOWN', '', #116, #60 ) ;
#161 = VERTEX_POINT ( 'NONE', #166 ) ;
#162 = DIRECTION ( 'NONE',  ( 0.0000000000000000000, 1.000000000000000000, 0.0000000000000000000 ) ) ;
#163 = EDGE_LOOP ( 'NONE', ( #39 ) ) ;
#164 = DIRECTION ( 'NONE',  ( 3.491481338843133355E-15, -1.224646799147353207E-16, 1.000000000000000000 ) ) ;
#165 = ORIENTED_EDGE ( 'NONE', *, *, #78, .T. ) ;
#166 = CARTESIAN_POINT ( 'NONE',  ( 6.810863958632262388E-15, 0.7499999999999997780, 1.950708967812777139 ) ) ;
#167 = APPROVAL_PERSON_ORGANIZATION ( #81, #170, #6 ) ;
#168 = EDGE_LOOP ( 'NONE', ( #99 ) ) ;
#169 = DIRECTION ( 'NONE',  ( -3.491481338843133355E-15, 1.224646799147353207E-16, -1.000000000000000000 ) ) ;
#170 = APPROVAL ( #104, 'UNSPECIFIED' ) ;
#171 = UNCERTAINTY_MEASURE_WITH_UNIT (LENGTH_MEASURE( 1.000000000000000082E-05 ), #53, 'distance_accuracy_value', 'NONE');
#172 = MECHANICAL_CONTEXT ( 'NONE', #15, 'mechanical' ) ;
#173 = PRODUCT ( '961243', '961243', '', ( #172 ) ) ;
#174 = PERSON_AND_ORGANIZATION ( #12, #233 ) ;
#175 = DIRECTION ( 'NONE',  ( 0.0000000000000000000, 0.0000000000000000000, 1.000000000000000000 ) ) ;
#176 = CALENDAR_DATE ( 2021, 24, 11 ) ;
#177 = CIRCLE ( 'NONE', #4, 0.7500000000000000000 ) ;
#178 = APPROVAL_PERSON_ORGANIZATION ( #88, #14, #231 ) ;
#179 = ADVANCED_FACE ( 'NONE', ( #74, #180 ), #44, .F. ) ;
#180 = FACE_OUTER_BOUND ( 'NONE', #193, .T. ) ;
#181 = DIRECTION ( 'NONE',  ( -4.275831445896958607E-31, -1.000000000000000000, -1.224646799147353454E-16 ) ) ;
#182 = FACE_OUTER_BOUND ( 'NONE', #222, .T. ) ;
#183 = AXIS2_PLACEMENT_3D ( 'NONE', #91, #73, #235 ) ;
#184 = ORIENTED_EDGE ( 'NONE', *, *, #102, .T. ) ;
#185 = CARTESIAN_POINT ( 'NONE',  ( 6.810863958632262388E-15, -5.639901068772183758E-16, 1.950708967812777139 ) ) ;
#186 = CARTESIAN_POINT ( 'NONE',  ( 6.810863958632262388E-15, -2.388929493499955095E-16, 1.950708967812777139 ) ) ;
#187 = ORIENTED_EDGE ( 'NONE', *, *, #3, .T. ) ;
#188 = ADVANCED_FACE ( 'NONE', ( #55 ), #236, .F. ) ;
#189 = CC_DESIGN_PERSON_AND_ORGANIZATION_ASSIGNMENT ( #28, #103, ( #116 ) ) ;
#190 = CIRCLE ( 'NONE', #183, 0.04000000000000000083 ) ;
#191 = EDGE_LOOP ( 'NONE', ( #117 ) ) ;
#192 = PERSON_AND_ORGANIZATION_ROLE ( 'creator' ) ;
#193 = EDGE_LOOP ( 'NONE', ( #75 ) ) ;
#194 = DATE_TIME_ROLE ( 'classification_date' ) ;
#195 = CC_DESIGN_SECURITY_CLASSIFICATION ( #137, ( #116 ) ) ;
#196 = DIRECTION ( 'NONE',  ( 1.000000000000000000, 0.0000000000000000000, 0.0000000000000000000 ) ) ;
#197 = CIRCLE ( 'NONE', #97, 1.499999999999996891 ) ;
#198 = ADVANCED_BREP_SHAPE_REPRESENTATION ( '961243', ( #128, #209, #152 ), #226 ) ;
#199 = CARTESIAN_POINT ( 'NONE',  ( 1.117274028429802674E-14, 0.7500000000000006661, 3.200000000000000178 ) ) ;
#200 = DIRECTION ( 'NONE',  ( 0.0000000000000000000, 1.000000000000000000, 0.0000000000000000000 ) ) ;
#201 = EDGE_LOOP ( 'NONE', ( #165 ) ) ;
#202 = DIRECTION ( 'NONE',  ( -4.275831445896958607E-31, -1.000000000000000000, -1.224646799147353207E-16 ) ) ;
#203 = EDGE_LOOP ( 'NONE', ( #187 ) ) ;
#204 = CARTESIAN_POINT ( 'NONE',  ( 1.316288464743861212E-13, -4.616918432785521081E-15, 37.69999999999999574 ) ) ;
#205 = DIRECTION ( 'NONE',  ( -3.491481338843133355E-15, 1.224646799147353207E-16, -1.000000000000000000 ) ) ;
#206 = ORIENTED_EDGE ( 'NONE', *, *, #3, .F. ) ;
#207 = CC_DESIGN_PERSON_AND_ORGANIZATION_ASSIGNMENT ( #11, #30, ( #173 ) ) ;
#208 = DIRECTION ( 'NONE',  ( 0.0000000000000000000, 1.000000000000000000, 0.0000000000000000000 ) ) ;
#209 = MANIFOLD_SOLID_BREP ( 'Corps-Déplacer/Copier1[2]', #218 ) ;
#210 = EDGE_LOOP ( 'NONE', ( #122 ) ) ;
#211 = CC_DESIGN_PERSON_AND_ORGANIZATION_ASSIGNMENT ( #212, #232, ( #160 ) ) ;
#212 = PERSON_AND_ORGANIZATION ( #12, #233 ) ;
#213 = CIRCLE ( 'NONE', #132, 0.7500000000000011102 ) ;
#214 = COORDINATED_UNIVERSAL_TIME_OFFSET ( 1, 0, .AHEAD. ) ;
#215 = CC_DESIGN_PERSON_AND_ORGANIZATION_ASSIGNMENT ( #29, #192, ( #116 ) ) ;
#216 = DATE_AND_TIME ( #65, #86 ) ;
#217 = DIRECTION ( 'NONE',  ( 0.0000000000000000000, 1.000000000000000000, 0.0000000000000000000 ) ) ;
#218 = CLOSED_SHELL ( 'NONE', ( #188, #230, #62 ) ) ;
#219 = PRODUCT_DEFINITION_SHAPE ( 'NONE', 'NONE',  #160 ) ;
#220 = DIRECTION ( 'NONE',  ( 4.275831445896958607E-31, 1.000000000000000000, 1.224646799147353207E-16 ) ) ;
#221 = CARTESIAN_POINT ( 'NONE',  ( 6.413747168845441632E-33, 0.04000000000000000083, 1.836970198721030751E-18 ) ) ;
#222 = EDGE_LOOP ( 'NONE', ( #127 ) ) ;
#223 = CARTESIAN_POINT ( 'NONE',  ( -5.344789307371196342E-33, 1.874699728327321368E-34, -1.530808498934191008E-18 ) ) ;
#224 = FACE_OUTER_BOUND ( 'NONE', #134, .T. ) ;
#225 = DIRECTION ( 'NONE',  ( 4.355100981429076768E-31, 1.000000000000000000, 1.224646799147353207E-16 ) ) ;
#226 =( GEOMETRIC_REPRESENTATION_CONTEXT ( 3 ) GLOBAL_UNCERTAINTY_ASSIGNED_CONTEXT ( ( #171 ) ) GLOBAL_UNIT_ASSIGNED_CONTEXT ( ( #53, #37, #18 ) ) REPRESENTATION_CONTEXT ( 'NONE', 'WORKASPACE' ) );
#227 = ADVANCED_FACE ( 'NONE', ( #89 ), #131, .F. ) ;
#228 = PLANE ( 'NONE',  #151 ) ;
#229 = EDGE_LOOP ( 'NONE', ( #1 ) ) ;
#230 = ADVANCED_FACE ( 'NONE', ( #239, #71 ), #2, .T. ) ;
#231 = APPROVAL_ROLE ( '' ) ;
#232 = PERSON_AND_ORGANIZATION_ROLE ( 'creator' ) ;
#233 = ORGANIZATION ( 'UNSPECIFIED', 'UNSPECIFIED', '' ) ;
#234 = DATE_AND_TIME ( #159, #22 ) ;
#235 = DIRECTION ( 'NONE',  ( 4.275831445896958607E-31, 1.000000000000000000, 1.224646799147353207E-16 ) ) ;
#236 = PLANE ( 'NONE',  #100 ) ;
#237 = DIRECTION ( 'NONE',  ( 3.491481338843133355E-15, -1.224646799147353207E-16, 1.000000000000000000 ) ) ;
#238 = DIRECTION ( 'NONE',  ( 0.0000000000000000000, 1.000000000000000000, 0.0000000000000000000 ) ) ;
#239 = FACE_OUTER_BOUND ( 'NONE', #210, .T. ) ;
#240 = DIRECTION ( 'NONE',  ( 0.0000000000000000000, 1.000000000000000000, 0.0000000000000000000 ) ) ;
#241 = VERTEX_POINT ( 'NONE', #16 ) ;
#242 = CLOSED_SHELL ( 'NONE', ( #227, #34, #179, #98, #118, #82 ) ) ;
#243 = DIRECTION ( 'NONE',  ( 3.491481338843133355E-15, -1.224646799147353207E-16, 1.000000000000000000 ) ) ;
ENDSEC;
END-ISO-10303-21;
