ISO-10303-21;
HEADER;
FILE_DESCRIPTION (( 'STEP AP203' ),
    '1' );
FILE_NAME ('961242.step',
    '2021-11-24T06:51:37',
    ( '' ),
    ( '' ),
    'SwSTEP 2.0',
    'SolidWorks 2019',
    '' );
FILE_SCHEMA (( 'CONFIG_CONTROL_DESIGN' ));
ENDSEC;

DATA;
#1 = CARTESIAN_POINT ( 'NONE',  ( 1.326762908760390423E-13, -4.653657836759941941E-15, 38.00000000000000000 ) ) ;
#2 = EDGE_CURVE ( 'NONE', #236, #236, #83, .T. ) ;
#3 = EDGE_LOOP ( 'NONE', ( #98 ) ) ;
#4 = ORIENTED_EDGE ( 'NONE', *, *, #150, .T. ) ;
#5 = CC_DESIGN_PERSON_AND_ORGANIZATION_ASSIGNMENT ( #68, #242, ( #25 ) ) ;
#6 = PERSON_AND_ORGANIZATION_ROLE ( 'classification_officer' ) ;
#7 = UNCERTAINTY_MEASURE_WITH_UNIT (LENGTH_MEASURE( 1.000000000000000082E-05 ), #148, 'distance_accuracy_value', 'NONE');
#8 = APPROVAL_ROLE ( '' ) ;
#9 = AXIS2_PLACEMENT_3D ( 'NONE', #183, #146, #221 ) ;
#10 = ADVANCED_FACE ( 'NONE', ( #210 ), #39, .F. ) ;
#11 = ORIENTED_EDGE ( 'NONE', *, *, #126, .T. ) ;
#12 = FACE_BOUND ( 'NONE', #52, .T. ) ;
#13 = ORIENTED_EDGE ( 'NONE', *, *, #150, .F. ) ;
#14 = LOCAL_TIME ( 7, 51, 37.00000000000000000, #64 ) ;
#15 = AXIS2_PLACEMENT_3D ( 'NONE', #71, #129, #31 ) ;
#16 = EDGE_LOOP ( 'NONE', ( #166 ) ) ;
#17 = CYLINDRICAL_SURFACE ( 'NONE', #80, 0.7500000000000005551 ) ;
#18 = AXIS2_PLACEMENT_3D ( 'NONE', #79, #156, #230 ) ;
#19 = DIRECTION ( 'NONE',  ( 0.0000000000000000000, 1.000000000000000000, 0.0000000000000000000 ) ) ;
#20 = APPROVAL_STATUS ( 'not_yet_approved' ) ;
#21 = DIRECTION ( 'NONE',  ( -4.275831445896958607E-31, -1.000000000000000000, -1.224646799147353207E-16 ) ) ;
#22 = DIRECTION ( 'NONE',  ( -4.275831445896958607E-31, -1.000000000000000000, -1.224646799147353207E-16 ) ) ;
#23 = CC_DESIGN_APPROVAL ( #188, ( #155 ) ) ;
#24 = CARTESIAN_POINT ( 'NONE',  ( 2.298071130742110643E-14, 1.499999999999996225, 6.581937314617161583 ) ) ;
#25 = PRODUCT ( '961242', '961242', '', ( #180 ) ) ;
#26 = SECURITY_CLASSIFICATION_LEVEL ( 'unclassified' ) ;
#27 = DATE_AND_TIME ( #121, #203 ) ;
#28 = FACE_OUTER_BOUND ( 'NONE', #191, .T. ) ;
#29 = CC_DESIGN_SECURITY_CLASSIFICATION ( #155, ( #213 ) ) ;
#30 = EDGE_LOOP ( 'NONE', ( #171 ) ) ;
#31 = DIRECTION ( 'NONE',  ( -4.275831445896958607E-31, -1.000000000000000000, -1.224646799147353454E-16 ) ) ;
#32 = ORIENTED_EDGE ( 'NONE', *, *, #90, .F. ) ;
#33 = TOROIDAL_SURFACE ( 'NONE', #136, 8.750000000000000000, 8.000000000000000000 ) ;
#34 =( NAMED_UNIT ( * ) SI_UNIT ( $, .STERADIAN. ) SOLID_ANGLE_UNIT ( ) );
#35 = DIRECTION ( 'NONE',  ( -3.491481338843133355E-15, 1.224646799147353207E-16, -1.000000000000000000 ) ) ;
#36 = SHAPE_DEFINITION_REPRESENTATION ( #177, #63 ) ;
#37 = CARTESIAN_POINT ( 'NONE',  ( 2.298071130742110643E-14, -8.060548464534433501E-16, 6.581937314617161583 ) ) ;
#38 = APPROVAL_DATE_TIME ( #206, #188 ) ;
#39 = PLANE ( 'NONE',  #110 ) ;
#40 = DIRECTION ( 'NONE',  ( 3.491481338843133355E-15, -1.224646799147353207E-16, 1.000000000000000000 ) ) ;
#41 = CC_DESIGN_PERSON_AND_ORGANIZATION_ASSIGNMENT ( #234, #160, ( #75 ) ) ;
#42 = VERTEX_POINT ( 'NONE', #157 ) ;
#43 = PERSON_AND_ORGANIZATION_ROLE ( 'creator' ) ;
#44 = APPROVAL_DATE_TIME ( #159, #204 ) ;
#45 = FACE_OUTER_BOUND ( 'NONE', #16, .T. ) ;
#46 = APPROVAL_PERSON_ORGANIZATION ( #62, #69, #8 ) ;
#47 = DIRECTION ( 'NONE',  ( 1.000000000000000000, 0.0000000000000000000, 0.0000000000000000000 ) ) ;
#48 = CC_DESIGN_PERSON_AND_ORGANIZATION_ASSIGNMENT ( #215, #43, ( #213 ) ) ;
#49 = AXIS2_PLACEMENT_3D ( 'NONE', #162, #124, #47 ) ;
#50 = EDGE_LOOP ( 'NONE', ( #89 ) ) ;
#51 = DIRECTION ( 'NONE',  ( 0.0000000000000000000, 1.000000000000000000, 0.0000000000000000000 ) ) ;
#52 = EDGE_LOOP ( 'NONE', ( #147 ) ) ;
#53 = AXIS2_PLACEMENT_3D ( 'NONE', #211, #40, #22 ) ;
#54 = CARTESIAN_POINT ( 'NONE',  ( 0.0000000000000000000, 0.0000000000000000000, 0.0000000000000000000 ) ) ;
#55 = CALENDAR_DATE ( 2021, 24, 11 ) ;
#56 = DIRECTION ( 'NONE',  ( 4.275831445896958607E-31, 1.000000000000000000, 1.224646799147353207E-16 ) ) ;
#57 = DATE_TIME_ROLE ( 'classification_date' ) ;
#58 = FACE_OUTER_BOUND ( 'NONE', #108, .T. ) ;
#59 = CARTESIAN_POINT ( 'NONE',  ( 1.316288464743861212E-13, 1.499999999999998668, 37.69999999999999574 ) ) ;
#60 = CIRCLE ( 'NONE', #117, 1.499999999999996891 ) ;
#61 = EDGE_CURVE ( 'NONE', #140, #140, #181, .T. ) ;
#62 = PERSON_AND_ORGANIZATION ( #152, #67 ) ;
#63 = ADVANCED_BREP_SHAPE_REPRESENTATION ( '961242', ( #217, #135, #49 ), #233 ) ;
#64 = COORDINATED_UNIVERSAL_TIME_OFFSET ( 1, 0, .AHEAD. ) ;
#65 = APPROVAL_DATE_TIME ( #235, #69 ) ;
#66 = CARTESIAN_POINT ( 'NONE',  ( 6.810863958632262388E-15, 0.7499999999999997780, 1.950708967812777139 ) ) ;
#67 = ORGANIZATION ( 'UNSPECIFIED', 'UNSPECIFIED', '' ) ;
#68 = PERSON_AND_ORGANIZATION ( #152, #67 ) ;
#69 = APPROVAL ( #178, 'UNSPECIFIED' ) ;
#70 = APPROVAL_PERSON_ORGANIZATION ( #190, #188, #226 ) ;
#71 = CARTESIAN_POINT ( 'NONE',  ( -1.068957861474239268E-32, 3.749399456654642737E-34, -3.061616997868382016E-18 ) ) ;
#72 = ORIENTED_EDGE ( 'NONE', *, *, #167, .F. ) ;
#73 = AXIS2_PLACEMENT_3D ( 'NONE', #168, #77, #97 ) ;
#74 = APPLICATION_PROTOCOL_DEFINITION ( 'international standard', 'config_control_design', 1994, #125 ) ;
#75 = PRODUCT_DEFINITION ( 'UNKNOWN', '', #213, #94 ) ;
#76 = FACE_OUTER_BOUND ( 'NONE', #78, .T. ) ;
#77 = DIRECTION ( 'NONE',  ( -3.491481338843133355E-15, 1.224646799147353207E-16, -1.000000000000000000 ) ) ;
#78 = EDGE_LOOP ( 'NONE', ( #32 ) ) ;
#79 = CARTESIAN_POINT ( 'NONE',  ( 6.810863958632262388E-15, -2.388929493499955095E-16, 1.950708967812777139 ) ) ;
#80 = AXIS2_PLACEMENT_3D ( 'NONE', #187, #205, #189 ) ;
#81 = VERTEX_POINT ( 'NONE', #173 ) ;
#82 = ADVANCED_FACE ( 'NONE', ( #58 ), #138, .T. ) ;
#83 = CIRCLE ( 'NONE', #163, 0.7500000000000000000 ) ;
#84 = APPROVAL_ROLE ( '' ) ;
#85 = PERSON_AND_ORGANIZATION ( #152, #67 ) ;
#86 = DIRECTION ( 'NONE',  ( -3.491481338843133355E-15, 1.224646799147353207E-16, -1.000000000000000000 ) ) ;
#87 = ADVANCED_FACE ( 'NONE', ( #116, #192 ), #17, .T. ) ;
#88 = AXIS2_PLACEMENT_3D ( 'NONE', #243, #169, #56 ) ;
#89 = ORIENTED_EDGE ( 'NONE', *, *, #61, .F. ) ;
#90 = EDGE_CURVE ( 'NONE', #214, #214, #60, .T. ) ;
#91 = DIRECTION ( 'NONE',  ( 4.275831445896959482E-31, 1.000000000000000000, 1.224646799147353207E-16 ) ) ;
#92 = ORIENTED_EDGE ( 'NONE', *, *, #101, .F. ) ;
#93 = CLOSED_SHELL ( 'NONE', ( #194, #87, #212, #145, #107, #133 ) ) ;
#94 = DESIGN_CONTEXT ( 'detailed design', #125, 'design' ) ;
#95 = DIRECTION ( 'NONE',  ( 0.0000000000000000000, 1.000000000000000000, 0.0000000000000000000 ) ) ;
#96 = CC_DESIGN_APPROVAL ( #204, ( #75 ) ) ;
#97 = DIRECTION ( 'NONE',  ( 4.275831445896958607E-31, 1.000000000000000000, 1.224646799147353207E-16 ) ) ;
#98 = ORIENTED_EDGE ( 'NONE', *, *, #2, .T. ) ;
#99 = EDGE_LOOP ( 'NONE', ( #72 ) ) ;
#100 = AXIS2_PLACEMENT_3D ( 'NONE', #207, #113, #95 ) ;
#101 = EDGE_CURVE ( 'NONE', #42, #42, #219, .T. ) ;
#102 = VERTEX_POINT ( 'NONE', #59 ) ;
#103 = PERSON_AND_ORGANIZATION ( #152, #67 ) ;
#104 = COORDINATED_UNIVERSAL_TIME_OFFSET ( 1, 0, .AHEAD. ) ;
#105 = DIRECTION ( 'NONE',  ( 3.491481338843133355E-15, -1.224646799147353207E-16, 1.000000000000000000 ) ) ;
#106 = CONICAL_SURFACE ( 'NONE', #122, 1.200000000000003286, 0.7853981633974453924 ) ;
#107 = ADVANCED_FACE ( 'NONE', ( #149, #114 ), #106, .T. ) ;
#108 = EDGE_LOOP ( 'NONE', ( #128 ) ) ;
#109 = DIRECTION ( 'NONE',  ( -3.491481338843133355E-15, 1.224646799147353207E-16, -1.000000000000000000 ) ) ;
#110 = AXIS2_PLACEMENT_3D ( 'NONE', #172, #115, #21 ) ;
#111 = CC_DESIGN_DATE_AND_TIME_ASSIGNMENT ( #27, #197, ( #75 ) ) ;
#112 = DIRECTION ( 'NONE',  ( -3.491481338843133355E-15, 1.224646799147353207E-16, -1.000000000000000000 ) ) ;
#113 = DIRECTION ( 'NONE',  ( -3.491481338843133355E-15, 1.224646799147353207E-16, -1.000000000000000000 ) ) ;
#114 = FACE_BOUND ( 'NONE', #201, .T. ) ;
#115 = DIRECTION ( 'NONE',  ( 3.491481338843133355E-15, -1.224646799147353207E-16, 1.000000000000000000 ) ) ;
#116 = FACE_OUTER_BOUND ( 'NONE', #153, .T. ) ;
#117 = AXIS2_PLACEMENT_3D ( 'NONE', #37, #35, #131 ) ;
#118 = CC_DESIGN_DATE_AND_TIME_ASSIGNMENT ( #132, #57, ( #155 ) ) ;
#119 = VERTEX_POINT ( 'NONE', #231 ) ;
#120 = PERSON_AND_ORGANIZATION ( #152, #67 ) ;
#121 = CALENDAR_DATE ( 2021, 24, 11 ) ;
#122 = AXIS2_PLACEMENT_3D ( 'NONE', #1, #112, #19 ) ;
#123 = DIRECTION ( 'NONE',  ( -4.275831445896958607E-31, -1.000000000000000000, -1.224646799147353207E-16 ) ) ;
#124 = DIRECTION ( 'NONE',  ( 0.0000000000000000000, 0.0000000000000000000, 1.000000000000000000 ) ) ;
#125 = APPLICATION_CONTEXT ( 'configuration controlled 3d designs of mechanical parts and assemblies' ) ;
#126 = EDGE_CURVE ( 'NONE', #119, #119, #237, .T. ) ;
#127 = CLOSED_SHELL ( 'NONE', ( #10, #174, #82 ) ) ;
#128 = ORIENTED_EDGE ( 'NONE', *, *, #2, .F. ) ;
#129 = DIRECTION ( 'NONE',  ( 3.491481338843133355E-15, -1.224646799147353207E-16, 1.000000000000000000 ) ) ;
#130 = APPROVAL_PERSON_ORGANIZATION ( #85, #204, #84 ) ;
#131 = DIRECTION ( 'NONE',  ( 0.0000000000000000000, 1.000000000000000000, 0.0000000000000000000 ) ) ;
#132 = DATE_AND_TIME ( #229, #185 ) ;
#133 = ADVANCED_FACE ( 'NONE', ( #151 ), #227, .F. ) ;
#134 = FACE_OUTER_BOUND ( 'NONE', #184, .T. ) ;
#135 = MANIFOLD_SOLID_BREP ( 'Corps-Déplacer/Copier1[2]', #127 ) ;
#136 = AXIS2_PLACEMENT_3D ( 'NONE', #161, #86, #143 ) ;
#137 = DIRECTION ( 'NONE',  ( 0.0000000000000000000, 1.000000000000000000, 0.0000000000000000000 ) ) ;
#138 = PLANE ( 'NONE',  #53 ) ;
#139 = CC_DESIGN_APPROVAL ( #69, ( #213 ) ) ;
#140 = VERTEX_POINT ( 'NONE', #195 ) ;
#141 = COORDINATED_UNIVERSAL_TIME_OFFSET ( 1, 0, .AHEAD. ) ;
#142 = APPROVAL_STATUS ( 'not_yet_approved' ) ;
#143 = DIRECTION ( 'NONE',  ( 4.355100981429076768E-31, 1.000000000000000000, 1.224646799147353207E-16 ) ) ;
#144 = AXIS2_PLACEMENT_3D ( 'NONE', #54, #202, #91 ) ;
#145 = ADVANCED_FACE ( 'NONE', ( #76, #134 ), #225, .T. ) ;
#146 = DIRECTION ( 'NONE',  ( -3.491481338843133355E-15, 1.224646799147353207E-16, -1.000000000000000000 ) ) ;
#147 = ORIENTED_EDGE ( 'NONE', *, *, #126, .F. ) ;
#148 =( LENGTH_UNIT ( ) NAMED_UNIT ( * ) SI_UNIT ( .MILLI., .METRE. ) );
#149 = FACE_OUTER_BOUND ( 'NONE', #238, .T. ) ;
#150 = EDGE_CURVE ( 'NONE', #102, #102, #200, .T. ) ;
#151 = FACE_OUTER_BOUND ( 'NONE', #99, .T. ) ;
#152 = PERSON ( 'UNSPECIFIED', 'UNSPECIFIED', 'UNSPECIFIED', ('UNSPECIFIED'), ('UNSPECIFIED'), ('UNSPECIFIED') ) ;
#153 = EDGE_LOOP ( 'NONE', ( #220 ) ) ;
#154 = COORDINATED_UNIVERSAL_TIME_OFFSET ( 1, 0, .AHEAD. ) ;
#155 = SECURITY_CLASSIFICATION ( '', '', #26 ) ;
#156 = DIRECTION ( 'NONE',  ( -3.491481338843133355E-15, 1.224646799147353207E-16, -1.000000000000000000 ) ) ;
#157 = CARTESIAN_POINT ( 'NONE',  ( 1.117274028429802674E-14, 0.7500000000000006661, 3.200000000000000178 ) ) ;
#158 = CIRCLE ( 'NONE', #176, 1.200000000000003286 ) ;
#159 = DATE_AND_TIME ( #175, #193 ) ;
#160 = PERSON_AND_ORGANIZATION_ROLE ( 'creator' ) ;
#161 = CARTESIAN_POINT ( 'NONE',  ( 1.117274028429802674E-14, 0.0000000000000000000, 3.200000000000000178 ) ) ;
#162 = CARTESIAN_POINT ( 'NONE',  ( 0.0000000000000000000, 0.0000000000000000000, 0.0000000000000000000 ) ) ;
#163 = AXIS2_PLACEMENT_3D ( 'NONE', #170, #228, #137 ) ;
#164 = CC_DESIGN_PERSON_AND_ORGANIZATION_ASSIGNMENT ( #120, #196, ( #213 ) ) ;
#165 = CARTESIAN_POINT ( 'NONE',  ( 1.326762908760390423E-13, -4.653657836759941941E-15, 38.00000000000000000 ) ) ;
#166 = ORIENTED_EDGE ( 'NONE', *, *, #61, .T. ) ;
#167 = EDGE_CURVE ( 'NONE', #81, #81, #158, .T. ) ;
#168 = CARTESIAN_POINT ( 'NONE',  ( -1.068957861474239268E-32, 3.749399456654642737E-34, -3.061616997868382016E-18 ) ) ;
#169 = DIRECTION ( 'NONE',  ( -3.491481338843133355E-15, 1.224646799147353207E-16, -1.000000000000000000 ) ) ;
#170 = CARTESIAN_POINT ( 'NONE',  ( 6.810863958632262388E-15, -2.388929493499955095E-16, 1.950708967812777139 ) ) ;
#171 = ORIENTED_EDGE ( 'NONE', *, *, #90, .T. ) ;
#172 = CARTESIAN_POINT ( 'NONE',  ( -5.344789307371196342E-33, 1.874699728327321368E-34, -1.530808498934191008E-18 ) ) ;
#173 = CARTESIAN_POINT ( 'NONE',  ( 1.326762908760390423E-13, 1.199999999999998845, 38.00000000000000000 ) ) ;
#174 = ADVANCED_FACE ( 'NONE', ( #239, #12 ), #241, .T. ) ;
#175 = CALENDAR_DATE ( 2021, 24, 11 ) ;
#176 = AXIS2_PLACEMENT_3D ( 'NONE', #165, #109, #51 ) ;
#177 = PRODUCT_DEFINITION_SHAPE ( 'NONE', 'NONE',  #75 ) ;
#178 = APPROVAL_STATUS ( 'not_yet_approved' ) ;
#179 = PLANE ( 'NONE',  #223 ) ;
#180 = MECHANICAL_CONTEXT ( 'NONE', #224, 'mechanical' ) ;
#181 = CIRCLE ( 'NONE', #18, 0.7500000000000000000 ) ;
#182 = ORIENTED_EDGE ( 'NONE', *, *, #167, .T. ) ;
#183 = CARTESIAN_POINT ( 'NONE',  ( 1.316288464743861212E-13, -4.616918432785521081E-15, 37.69999999999999574 ) ) ;
#184 = EDGE_LOOP ( 'NONE', ( #4 ) ) ;
#185 = LOCAL_TIME ( 7, 51, 37.00000000000000000, #154 ) ;
#186 =( NAMED_UNIT ( * ) PLANE_ANGLE_UNIT ( ) SI_UNIT ( $, .RADIAN. ) );
#187 = CARTESIAN_POINT ( 'NONE',  ( 0.0000000000000000000, 0.0000000000000000000, 0.0000000000000000000 ) ) ;
#188 = APPROVAL ( #20, 'UNSPECIFIED' ) ;
#189 = DIRECTION ( 'NONE',  ( 4.275831445896958607E-31, 1.000000000000000000, 1.224646799147353207E-16 ) ) ;
#190 = PERSON_AND_ORGANIZATION ( #152, #67 ) ;
#191 = EDGE_LOOP ( 'NONE', ( #92 ) ) ;
#192 = FACE_OUTER_BOUND ( 'NONE', #50, .T. ) ;
#193 = LOCAL_TIME ( 7, 51, 37.00000000000000000, #104 ) ;
#194 = ADVANCED_FACE ( 'NONE', ( #45 ), #179, .F. ) ;
#195 = CARTESIAN_POINT ( 'NONE',  ( 6.810863958632262388E-15, 0.7499999999999997780, 1.950708967812777139 ) ) ;
#196 = PERSON_AND_ORGANIZATION_ROLE ( 'design_supplier' ) ;
#197 = DATE_TIME_ROLE ( 'creation_date' ) ;
#198 = CARTESIAN_POINT ( 'NONE',  ( 6.810863958632262388E-15, -5.639901068772183758E-16, 1.950708967812777139 ) ) ;
#199 = APPLICATION_PROTOCOL_DEFINITION ( 'international standard', 'config_control_design', 1994, #224 ) ;
#200 = CIRCLE ( 'NONE', #9, 1.500000000000003331 ) ;
#201 = EDGE_LOOP ( 'NONE', ( #182 ) ) ;
#202 = DIRECTION ( 'NONE',  ( -3.491481338843133355E-15, 1.224646799147353207E-16, -1.000000000000000000 ) ) ;
#203 = LOCAL_TIME ( 7, 51, 37.00000000000000000, #141 ) ;
#204 = APPROVAL ( #142, 'UNSPECIFIED' ) ;
#205 = DIRECTION ( 'NONE',  ( -3.491481338843133355E-15, 1.224646799147353207E-16, -1.000000000000000000 ) ) ;
#206 = DATE_AND_TIME ( #55, #209 ) ;
#207 = CARTESIAN_POINT ( 'NONE',  ( 1.117274028429802674E-14, -3.918869757271530460E-16, 3.200000000000000178 ) ) ;
#208 = COORDINATED_UNIVERSAL_TIME_OFFSET ( 1, 0, .AHEAD. ) ;
#209 = LOCAL_TIME ( 7, 51, 37.00000000000000000, #208 ) ;
#210 = FACE_OUTER_BOUND ( 'NONE', #222, .T. ) ;
#211 = CARTESIAN_POINT ( 'NONE',  ( 6.810863958632262388E-15, -5.639901068772183758E-16, 1.950708967812777139 ) ) ;
#212 = ADVANCED_FACE ( 'NONE', ( #218, #28 ), #33, .F. ) ;
#213 = PRODUCT_DEFINITION_FORMATION_WITH_SPECIFIED_SOURCE ( 'ANY', '', #25, .NOT_KNOWN. ) ;
#214 = VERTEX_POINT ( 'NONE', #24 ) ;
#215 = PERSON_AND_ORGANIZATION ( #152, #67 ) ;
#216 = CALENDAR_DATE ( 2021, 24, 11 ) ;
#217 = MANIFOLD_SOLID_BREP ( 'Corps-Déplacer/Copier1[1]', #93 ) ;
#218 = FACE_OUTER_BOUND ( 'NONE', #30, .T. ) ;
#219 = CIRCLE ( 'NONE', #100, 0.7500000000000011102 ) ;
#220 = ORIENTED_EDGE ( 'NONE', *, *, #101, .T. ) ;
#221 = DIRECTION ( 'NONE',  ( 0.0000000000000000000, 1.000000000000000000, 0.0000000000000000000 ) ) ;
#222 = EDGE_LOOP ( 'NONE', ( #11 ) ) ;
#223 = AXIS2_PLACEMENT_3D ( 'NONE', #198, #105, #123 ) ;
#224 = APPLICATION_CONTEXT ( 'configuration controlled 3d designs of mechanical parts and assemblies' ) ;
#225 = CYLINDRICAL_SURFACE ( 'NONE', #144, 1.500000000000000000 ) ;
#226 = APPROVAL_ROLE ( '' ) ;
#227 = PLANE ( 'NONE',  #88 ) ;
#228 = DIRECTION ( 'NONE',  ( -3.491481338843133355E-15, 1.224646799147353207E-16, -1.000000000000000000 ) ) ;
#229 = CALENDAR_DATE ( 2021, 24, 11 ) ;
#230 = DIRECTION ( 'NONE',  ( 0.0000000000000000000, 1.000000000000000000, 0.0000000000000000000 ) ) ;
#231 = CARTESIAN_POINT ( 'NONE',  ( 6.413747168845441632E-33, 0.04000000000000000083, 1.836970198721030751E-18 ) ) ;
#232 = CC_DESIGN_PERSON_AND_ORGANIZATION_ASSIGNMENT ( #103, #6, ( #155 ) ) ;
#233 =( GEOMETRIC_REPRESENTATION_CONTEXT ( 3 ) GLOBAL_UNCERTAINTY_ASSIGNED_CONTEXT ( ( #7 ) ) GLOBAL_UNIT_ASSIGNED_CONTEXT ( ( #148, #186, #34 ) ) REPRESENTATION_CONTEXT ( 'NONE', 'WORKASPACE' ) );
#234 = PERSON_AND_ORGANIZATION ( #152, #67 ) ;
#235 = DATE_AND_TIME ( #216, #14 ) ;
#236 = VERTEX_POINT ( 'NONE', #66 ) ;
#237 = CIRCLE ( 'NONE', #73, 0.04000000000000000083 ) ;
#238 = EDGE_LOOP ( 'NONE', ( #13 ) ) ;
#239 = FACE_OUTER_BOUND ( 'NONE', #3, .T. ) ;
#240 = PRODUCT_RELATED_PRODUCT_CATEGORY ( 'detail', '', ( #25 ) ) ;
#241 = CONICAL_SURFACE ( 'NONE', #15, 0.04000000000000000083, 0.3490658503988666728 ) ;
#242 = PERSON_AND_ORGANIZATION_ROLE ( 'design_owner' ) ;
#243 = CARTESIAN_POINT ( 'NONE',  ( 1.326762908760390423E-13, 8.998558695971103225E-33, 38.00000000000000000 ) ) ;
ENDSEC;
END-ISO-10303-21;
