ISO-10303-21;
HEADER;
FILE_DESCRIPTION (( 'STEP AP203' ),
    '1' );
FILE_NAME ('961241.step',
    '2021-11-24T07:09:59',
    ( '' ),
    ( '' ),
    'SwSTEP 2.0',
    'SolidWorks 2019',
    '' );
FILE_SCHEMA (( 'CONFIG_CONTROL_DESIGN' ));
ENDSEC;

DATA;
#1 = ORIENTED_EDGE ( 'NONE', *, *, #71, .F. ) ;
#2 = EDGE_LOOP ( 'NONE', ( #59 ) ) ;
#3 = SECURITY_CLASSIFICATION ( '', '', #109 ) ;
#4 = DIRECTION ( 'NONE',  ( -4.275831445896958607E-31, -1.000000000000000000, -1.224646799147353207E-16 ) ) ;
#5 =( NAMED_UNIT ( * ) PLANE_ANGLE_UNIT ( ) SI_UNIT ( $, .RADIAN. ) );
#6 = AXIS2_PLACEMENT_3D ( 'NONE', #117, #69, #135 ) ;
#7 = DIRECTION ( 'NONE',  ( 0.0000000000000000000, 1.000000000000000000, 0.0000000000000000000 ) ) ;
#8 = PERSON ( 'UNSPECIFIED', 'UNSPECIFIED', 'UNSPECIFIED', ('UNSPECIFIED'), ('UNSPECIFIED'), ('UNSPECIFIED') ) ;
#9 = DIRECTION ( 'NONE',  ( -4.275831445896958607E-31, -1.000000000000000000, -1.224646799147353207E-16 ) ) ;
#10 = CARTESIAN_POINT ( 'NONE',  ( 1.117274028429802674E-14, 0.7500000000000006661, 3.200000000000000178 ) ) ;
#11 = APPROVAL_PERSON_ORGANIZATION ( #54, #98, #177 ) ;
#12 = DATE_AND_TIME ( #180, #235 ) ;
#13 = DIRECTION ( 'NONE',  ( 0.0000000000000000000, 0.0000000000000000000, 1.000000000000000000 ) ) ;
#14 = APPROVAL_DATE_TIME ( #237, #219 ) ;
#15 = CALENDAR_DATE ( 2021, 24, 11 ) ;
#16 = AXIS2_PLACEMENT_3D ( 'NONE', #178, #13, #121 ) ;
#17 = APPROVAL_STATUS ( 'not_yet_approved' ) ;
#18 = ORIENTED_EDGE ( 'NONE', *, *, #86, .F. ) ;
#19 = CLOSED_SHELL ( 'NONE', ( #44, #34, #112, #184, #78, #89 ) ) ;
#20 = EDGE_LOOP ( 'NONE', ( #95 ) ) ;
#21 = ORIENTED_EDGE ( 'NONE', *, *, #205, .T. ) ;
#22 = PRODUCT_RELATED_PRODUCT_CATEGORY ( 'detail', '', ( #84 ) ) ;
#23 = DIRECTION ( 'NONE',  ( -3.491481338843133355E-15, 1.224646799147353207E-16, -1.000000000000000000 ) ) ;
#24 = APPLICATION_CONTEXT ( 'configuration controlled 3d designs of mechanical parts and assemblies' ) ;
#25 = EDGE_LOOP ( 'NONE', ( #150 ) ) ;
#26 = CIRCLE ( 'NONE', #127, 1.500000000000003331 ) ;
#27 = CARTESIAN_POINT ( 'NONE',  ( -3.206873584422718626E-32, 1.124819836996393035E-33, -9.184850993605147205E-18 ) ) ;
#28 = FACE_BOUND ( 'NONE', #126, .T. ) ;
#29 = AXIS2_PLACEMENT_3D ( 'NONE', #46, #193, #66 ) ;
#30 = DIRECTION ( 'NONE',  ( 0.0000000000000000000, 1.000000000000000000, 0.0000000000000000000 ) ) ;
#31 = FACE_OUTER_BOUND ( 'NONE', #20, .T. ) ;
#32 = APPROVAL_STATUS ( 'not_yet_approved' ) ;
#33 = MECHANICAL_CONTEXT ( 'NONE', #24, 'mechanical' ) ;
#34 = ADVANCED_FACE ( 'NONE', ( #125, #204 ), #243, .T. ) ;
#35 = PERSON_AND_ORGANIZATION_ROLE ( 'design_supplier' ) ;
#36 = DIRECTION ( 'NONE',  ( 0.0000000000000000000, 1.000000000000000000, 0.0000000000000000000 ) ) ;
#37 = EDGE_LOOP ( 'NONE', ( #1 ) ) ;
#38 = AXIS2_PLACEMENT_3D ( 'NONE', #48, #82, #65 ) ;
#39 = ORIENTED_EDGE ( 'NONE', *, *, #232, .T. ) ;
#40 = PLANE ( 'NONE',  #222 ) ;
#41 = DIRECTION ( 'NONE',  ( 3.491481338843133355E-15, -1.224646799147353207E-16, 1.000000000000000000 ) ) ;
#42 = AXIS2_PLACEMENT_3D ( 'NONE', #27, #41, #9 ) ;
#43 = DIRECTION ( 'NONE',  ( -3.491481338843133355E-15, 1.224646799147353207E-16, -1.000000000000000000 ) ) ;
#44 = ADVANCED_FACE ( 'NONE', ( #62 ), #131, .F. ) ;
#45 = FACE_OUTER_BOUND ( 'NONE', #113, .T. ) ;
#46 = CARTESIAN_POINT ( 'NONE',  ( -1.603436792211359313E-32, 5.624099184981965174E-34, -4.592425496802573602E-18 ) ) ;
#47 = AXIS2_PLACEMENT_3D ( 'NONE', #105, #174, #228 ) ;
#48 = CARTESIAN_POINT ( 'NONE',  ( 1.326762908760390423E-13, 8.998558695971103225E-33, 38.00000000000000000 ) ) ;
#49 = COORDINATED_UNIVERSAL_TIME_OFFSET ( 1, 0, .AHEAD. ) ;
#50 = PERSON_AND_ORGANIZATION ( #8, #52 ) ;
#51 = TOROIDAL_SURFACE ( 'NONE', #6, 8.750000000000000000, 8.000000000000000000 ) ;
#52 = ORGANIZATION ( 'UNSPECIFIED', 'UNSPECIFIED', '' ) ;
#53 = APPROVAL_DATE_TIME ( #92, #169 ) ;
#54 = PERSON_AND_ORGANIZATION ( #8, #52 ) ;
#55 = CC_DESIGN_PERSON_AND_ORGANIZATION_ASSIGNMENT ( #202, #73, ( #225 ) ) ;
#56 = ORIENTED_EDGE ( 'NONE', *, *, #86, .T. ) ;
#57 = ADVANCED_FACE ( 'NONE', ( #94 ), #40, .T. ) ;
#58 = CARTESIAN_POINT ( 'NONE',  ( 1.316288464743861212E-13, -4.616918432785521081E-15, 37.69999999999999574 ) ) ;
#59 = ORIENTED_EDGE ( 'NONE', *, *, #146, .F. ) ;
#60 = UNCERTAINTY_MEASURE_WITH_UNIT (LENGTH_MEASURE( 1.000000000000000082E-05 ), #191, 'distance_accuracy_value', 'NONE');
#61 = CIRCLE ( 'NONE', #194, 1.200000000000003286 ) ;
#62 = FACE_OUTER_BOUND ( 'NONE', #227, .T. ) ;
#63 = CARTESIAN_POINT ( 'NONE',  ( 0.0000000000000000000, 0.0000000000000000000, 0.0000000000000000000 ) ) ;
#64 = CARTESIAN_POINT ( 'NONE',  ( 6.235297990297140767E-15, 0.7499999999999997780, 1.785860322645500098 ) ) ;
#65 = DIRECTION ( 'NONE',  ( 4.275831445896958607E-31, 1.000000000000000000, 1.224646799147353207E-16 ) ) ;
#66 = DIRECTION ( 'NONE',  ( -4.275831445896958607E-31, -1.000000000000000000, -1.224646799147353207E-16 ) ) ;
#67 = PRODUCT_DEFINITION_SHAPE ( 'NONE', 'NONE',  #225 ) ;
#68 = CARTESIAN_POINT ( 'NONE',  ( 0.0000000000000000000, 0.0000000000000000000, 0.0000000000000000000 ) ) ;
#69 = DIRECTION ( 'NONE',  ( -3.491481338843133355E-15, 1.224646799147353207E-16, -1.000000000000000000 ) ) ;
#70 = PERSON_AND_ORGANIZATION_ROLE ( 'classification_officer' ) ;
#71 = EDGE_CURVE ( 'NONE', #156, #156, #240, .T. ) ;
#72 = PERSON_AND_ORGANIZATION ( #8, #52 ) ;
#73 = PERSON_AND_ORGANIZATION_ROLE ( 'creator' ) ;
#74 = AXIS2_PLACEMENT_3D ( 'NONE', #83, #210, #7 ) ;
#75 = CC_DESIGN_SECURITY_CLASSIFICATION ( #3, ( #242 ) ) ;
#76 = CARTESIAN_POINT ( 'NONE',  ( 1.326762908760390423E-13, -4.653657836759941941E-15, 38.00000000000000000 ) ) ;
#77 = ORIENTED_EDGE ( 'NONE', *, *, #208, .F. ) ;
#78 = ADVANCED_FACE ( 'NONE', ( #110, #163 ), #164, .T. ) ;
#79 = CIRCLE ( 'NONE', #215, 0.7500000000000011102 ) ;
#80 = CC_DESIGN_PERSON_AND_ORGANIZATION_ASSIGNMENT ( #72, #238, ( #84 ) ) ;
#81 = CARTESIAN_POINT ( 'NONE',  ( 1.326762908760390423E-13, 1.199999999999998845, 38.00000000000000000 ) ) ;
#82 = DIRECTION ( 'NONE',  ( -3.491481338843133355E-15, 1.224646799147353207E-16, -1.000000000000000000 ) ) ;
#83 = CARTESIAN_POINT ( 'NONE',  ( 6.235297990297140767E-15, -2.187048127852071188E-16, 1.785860322645500098 ) ) ;
#84 = PRODUCT ( '961241', '961241', '', ( #33 ) ) ;
#85 = CARTESIAN_POINT ( 'NONE',  ( 1.117274028429802674E-14, -3.918869757271530460E-16, 3.200000000000000178 ) ) ;
#86 = EDGE_CURVE ( 'NONE', #158, #158, #26, .T. ) ;
#87 = LOCAL_TIME ( 8, 9, 59.00000000000000000, #119 ) ;
#88 = APPLICATION_PROTOCOL_DEFINITION ( 'international standard', 'config_control_design', 1994, #24 ) ;
#89 = ADVANCED_FACE ( 'NONE', ( #31 ), #192, .F. ) ;
#90 =( NAMED_UNIT ( * ) SI_UNIT ( $, .STERADIAN. ) SOLID_ANGLE_UNIT ( ) );
#91 = CIRCLE ( 'NONE', #47, 0.1000000000000000056 ) ;
#92 = DATE_AND_TIME ( #218, #187 ) ;
#93 = ADVANCED_FACE ( 'NONE', ( #115 ), #195, .F. ) ;
#94 = FACE_OUTER_BOUND ( 'NONE', #37, .T. ) ;
#95 = ORIENTED_EDGE ( 'NONE', *, *, #205, .F. ) ;
#96 = EDGE_LOOP ( 'NONE', ( #167 ) ) ;
#97 = DIRECTION ( 'NONE',  ( 4.275831445896958607E-31, 1.000000000000000000, 1.224646799147353207E-16 ) ) ;
#98 = APPROVAL ( #32, 'UNSPECIFIED' ) ;
#99 = EDGE_LOOP ( 'NONE', ( #21 ) ) ;
#100 = DIRECTION ( 'NONE',  ( -3.491481338843133355E-15, 1.224646799147353207E-16, -1.000000000000000000 ) ) ;
#101 = CC_DESIGN_PERSON_AND_ORGANIZATION_ASSIGNMENT ( #220, #199, ( #242 ) ) ;
#102 = CYLINDRICAL_SURFACE ( 'NONE', #151, 1.500000000000000000 ) ;
#103 = APPROVAL_PERSON_ORGANIZATION ( #198, #169, #143 ) ;
#104 = DIRECTION ( 'NONE',  ( -3.491481338843133355E-15, 1.224646799147353207E-16, -1.000000000000000000 ) ) ;
#105 = CARTESIAN_POINT ( 'NONE',  ( -3.206873584422718626E-32, 1.124819836996393035E-33, -9.184850993605147205E-18 ) ) ;
#106 = DATE_TIME_ROLE ( 'classification_date' ) ;
#107 = CALENDAR_DATE ( 2021, 24, 11 ) ;
#108 = COORDINATED_UNIVERSAL_TIME_OFFSET ( 1, 0, .AHEAD. ) ;
#109 = SECURITY_CLASSIFICATION_LEVEL ( 'unclassified' ) ;
#110 = FACE_OUTER_BOUND ( 'NONE', #149, .T. ) ;
#111 = ORIENTED_EDGE ( 'NONE', *, *, #223, .F. ) ;
#112 = ADVANCED_FACE ( 'NONE', ( #140, #229 ), #51, .F. ) ;
#113 = EDGE_LOOP ( 'NONE', ( #56 ) ) ;
#114 = CARTESIAN_POINT ( 'NONE',  ( 6.235297990297140767E-15, 5.624099184981963292E-33, 1.785860322645500098 ) ) ;
#115 = FACE_OUTER_BOUND ( 'NONE', #129, .T. ) ;
#116 = CARTESIAN_POINT ( 'NONE',  ( 1.316288464743861212E-13, 1.499999999999998668, 37.69999999999999574 ) ) ;
#117 = CARTESIAN_POINT ( 'NONE',  ( 1.117274028429802674E-14, 0.0000000000000000000, 3.200000000000000178 ) ) ;
#118 = VERTEX_POINT ( 'NONE', #155 ) ;
#119 = COORDINATED_UNIVERSAL_TIME_OFFSET ( 1, 0, .AHEAD. ) ;
#120 = PERSON_AND_ORGANIZATION ( #8, #52 ) ;
#121 = DIRECTION ( 'NONE',  ( 1.000000000000000000, 0.0000000000000000000, 0.0000000000000000000 ) ) ;
#122 = COORDINATED_UNIVERSAL_TIME_OFFSET ( 1, 0, .AHEAD. ) ;
#123 = AXIS2_PLACEMENT_3D ( 'NONE', #63, #23, #97 ) ;
#124 = DIRECTION ( 'NONE',  ( -4.275831445896958607E-31, -1.000000000000000000, -1.224646799147353207E-16 ) ) ;
#125 = FACE_OUTER_BOUND ( 'NONE', #226, .T. ) ;
#126 = EDGE_LOOP ( 'NONE', ( #77 ) ) ;
#127 = AXIS2_PLACEMENT_3D ( 'NONE', #58, #206, #30 ) ;
#128 = CC_DESIGN_APPROVAL ( #219, ( #242 ) ) ;
#129 = EDGE_LOOP ( 'NONE', ( #166 ) ) ;
#130 = MANIFOLD_SOLID_BREP ( 'Corps-Déplacer/Copier1[2]', #211 ) ;
#131 = PLANE ( 'NONE',  #172 ) ;
#132 = DESIGN_CONTEXT ( 'detailed design', #231, 'design' ) ;
#133 = DIRECTION ( 'NONE',  ( 4.275831445896959482E-31, 1.000000000000000000, 1.224646799147353207E-16 ) ) ;
#134 = MANIFOLD_SOLID_BREP ( 'Corps-Déplacer/Copier1[1]', #19 ) ;
#135 = DIRECTION ( 'NONE',  ( 4.355100981429076768E-31, 1.000000000000000000, 1.224646799147353207E-16 ) ) ;
#136 = CC_DESIGN_PERSON_AND_ORGANIZATION_ASSIGNMENT ( #120, #70, ( #3 ) ) ;
#137 = DIRECTION ( 'NONE',  ( 0.0000000000000000000, 1.000000000000000000, 0.0000000000000000000 ) ) ;
#138 = ADVANCED_BREP_SHAPE_REPRESENTATION ( '961241', ( #134, #130, #16 ), #141 ) ;
#139 = DIRECTION ( 'NONE',  ( -3.491481338843133355E-15, 1.224646799147353207E-16, -1.000000000000000000 ) ) ;
#140 = FACE_OUTER_BOUND ( 'NONE', #189, .T. ) ;
#141 =( GEOMETRIC_REPRESENTATION_CONTEXT ( 3 ) GLOBAL_UNCERTAINTY_ASSIGNED_CONTEXT ( ( #60 ) ) GLOBAL_UNIT_ASSIGNED_CONTEXT ( ( #191, #5, #90 ) ) REPRESENTATION_CONTEXT ( 'NONE', 'WORKASPACE' ) );
#142 = CALENDAR_DATE ( 2021, 24, 11 ) ;
#143 = APPROVAL_ROLE ( '' ) ;
#144 = DATE_AND_TIME ( #15, #165 ) ;
#145 = APPROVAL_ROLE ( '' ) ;
#146 = EDGE_CURVE ( 'NONE', #171, #171, #186, .T. ) ;
#147 = CONICAL_SURFACE ( 'NONE', #42, 0.1000000000000000056, 0.3490658503988666728 ) ;
#148 = DIRECTION ( 'NONE',  ( -3.491481338843133355E-15, 1.224646799147353207E-16, -1.000000000000000000 ) ) ;
#149 = EDGE_LOOP ( 'NONE', ( #18 ) ) ;
#150 = ORIENTED_EDGE ( 'NONE', *, *, #232, .F. ) ;
#151 = AXIS2_PLACEMENT_3D ( 'NONE', #68, #100, #133 ) ;
#152 = ORIENTED_EDGE ( 'NONE', *, *, #146, .T. ) ;
#153 = DIRECTION ( 'NONE',  ( -3.491481338843133355E-15, 1.224646799147353207E-16, -1.000000000000000000 ) ) ;
#154 = ADVANCED_FACE ( 'NONE', ( #213, #28 ), #147, .T. ) ;
#155 = CARTESIAN_POINT ( 'NONE',  ( 1.068957861474239953E-32, 0.1000000000000000056, 3.061616997868384713E-18 ) ) ;
#156 = VERTEX_POINT ( 'NONE', #170 ) ;
#157 = VERTEX_POINT ( 'NONE', #81 ) ;
#158 = VERTEX_POINT ( 'NONE', #116 ) ;
#159 = APPLICATION_PROTOCOL_DEFINITION ( 'international standard', 'config_control_design', 1994, #231 ) ;
#160 = APPROVAL_DATE_TIME ( #12, #98 ) ;
#161 = AXIS2_PLACEMENT_3D ( 'NONE', #185, #153, #36 ) ;
#162 = AXIS2_PLACEMENT_3D ( 'NONE', #212, #43, #137 ) ;
#163 = FACE_BOUND ( 'NONE', #99, .T. ) ;
#164 = CONICAL_SURFACE ( 'NONE', #234, 1.200000000000003286, 0.7853981633974453924 ) ;
#165 = LOCAL_TIME ( 8, 9, 59.00000000000000000, #122 ) ;
#166 = ORIENTED_EDGE ( 'NONE', *, *, #208, .T. ) ;
#167 = ORIENTED_EDGE ( 'NONE', *, *, #71, .T. ) ;
#168 = CARTESIAN_POINT ( 'NONE',  ( 6.235297990297140767E-15, 5.624099184981963292E-33, 1.785860322645500098 ) ) ;
#169 = APPROVAL ( #221, 'UNSPECIFIED' ) ;
#170 = CARTESIAN_POINT ( 'NONE',  ( 6.235297990297140767E-15, 0.7499999999999997780, 1.785860322645500098 ) ) ;
#171 = VERTEX_POINT ( 'NONE', #217 ) ;
#172 = AXIS2_PLACEMENT_3D ( 'NONE', #168, #209, #4 ) ;
#173 = CC_DESIGN_APPROVAL ( #98, ( #3 ) ) ;
#174 = DIRECTION ( 'NONE',  ( -3.491481338843133355E-15, 1.224646799147353207E-16, -1.000000000000000000 ) ) ;
#175 = DIRECTION ( 'NONE',  ( 0.0000000000000000000, 1.000000000000000000, 0.0000000000000000000 ) ) ;
#176 = VERTEX_POINT ( 'NONE', #10 ) ;
#177 = APPROVAL_ROLE ( '' ) ;
#178 = CARTESIAN_POINT ( 'NONE',  ( 0.0000000000000000000, 0.0000000000000000000, 0.0000000000000000000 ) ) ;
#179 = CC_DESIGN_DATE_AND_TIME_ASSIGNMENT ( #144, #181, ( #225 ) ) ;
#180 = CALENDAR_DATE ( 2021, 24, 11 ) ;
#181 = DATE_TIME_ROLE ( 'creation_date' ) ;
#182 = CIRCLE ( 'NONE', #74, 0.7500000000000000000 ) ;
#183 = COORDINATED_UNIVERSAL_TIME_OFFSET ( 1, 0, .AHEAD. ) ;
#184 = ADVANCED_FACE ( 'NONE', ( #214, #45 ), #102, .T. ) ;
#185 = CARTESIAN_POINT ( 'NONE',  ( 6.235297990297140767E-15, -2.187048127852071188E-16, 1.785860322645500098 ) ) ;
#186 = CIRCLE ( 'NONE', #162, 1.499999999999996891 ) ;
#187 = LOCAL_TIME ( 8, 9, 59.00000000000000000, #183 ) ;
#188 = ORIENTED_EDGE ( 'NONE', *, *, #223, .T. ) ;
#189 = EDGE_LOOP ( 'NONE', ( #152 ) ) ;
#190 = DIRECTION ( 'NONE',  ( 3.491481338843133355E-15, -1.224646799147353207E-16, 1.000000000000000000 ) ) ;
#191 =( LENGTH_UNIT ( ) NAMED_UNIT ( * ) SI_UNIT ( .MILLI., .METRE. ) );
#192 = PLANE ( 'NONE',  #38 ) ;
#193 = DIRECTION ( 'NONE',  ( 3.491481338843133355E-15, -1.224646799147353207E-16, 1.000000000000000000 ) ) ;
#194 = AXIS2_PLACEMENT_3D ( 'NONE', #233, #139, #230 ) ;
#195 = PLANE ( 'NONE',  #29 ) ;
#196 = VERTEX_POINT ( 'NONE', #64 ) ;
#197 = DATE_AND_TIME ( #107, #203 ) ;
#198 = PERSON_AND_ORGANIZATION ( #8, #52 ) ;
#199 = PERSON_AND_ORGANIZATION_ROLE ( 'creator' ) ;
#200 = PERSON_AND_ORGANIZATION ( #8, #52 ) ;
#201 = CC_DESIGN_PERSON_AND_ORGANIZATION_ASSIGNMENT ( #50, #35, ( #242 ) ) ;
#202 = PERSON_AND_ORGANIZATION ( #8, #52 ) ;
#203 = LOCAL_TIME ( 8, 9, 59.00000000000000000, #49 ) ;
#204 = FACE_OUTER_BOUND ( 'NONE', #207, .T. ) ;
#205 = EDGE_CURVE ( 'NONE', #157, #157, #61, .T. ) ;
#206 = DIRECTION ( 'NONE',  ( -3.491481338843133355E-15, 1.224646799147353207E-16, -1.000000000000000000 ) ) ;
#207 = EDGE_LOOP ( 'NONE', ( #111 ) ) ;
#208 = EDGE_CURVE ( 'NONE', #118, #118, #91, .T. ) ;
#209 = DIRECTION ( 'NONE',  ( 3.491481338843133355E-15, -1.224646799147353207E-16, 1.000000000000000000 ) ) ;
#210 = DIRECTION ( 'NONE',  ( -3.491481338843133355E-15, 1.224646799147353207E-16, -1.000000000000000000 ) ) ;
#211 = CLOSED_SHELL ( 'NONE', ( #93, #154, #57 ) ) ;
#212 = CARTESIAN_POINT ( 'NONE',  ( 2.298071130742110643E-14, -8.060548464534433501E-16, 6.581937314617161583 ) ) ;
#213 = FACE_OUTER_BOUND ( 'NONE', #96, .T. ) ;
#214 = FACE_OUTER_BOUND ( 'NONE', #2, .T. ) ;
#215 = AXIS2_PLACEMENT_3D ( 'NONE', #85, #104, #175 ) ;
#216 = CC_DESIGN_APPROVAL ( #169, ( #225 ) ) ;
#217 = CARTESIAN_POINT ( 'NONE',  ( 2.298071130742110643E-14, 1.499999999999996225, 6.581937314617161583 ) ) ;
#218 = CALENDAR_DATE ( 2021, 24, 11 ) ;
#219 = APPROVAL ( #17, 'UNSPECIFIED' ) ;
#220 = PERSON_AND_ORGANIZATION ( #8, #52 ) ;
#221 = APPROVAL_STATUS ( 'not_yet_approved' ) ;
#222 = AXIS2_PLACEMENT_3D ( 'NONE', #114, #190, #124 ) ;
#223 = EDGE_CURVE ( 'NONE', #196, #196, #182, .T. ) ;
#224 = DIRECTION ( 'NONE',  ( 0.0000000000000000000, 1.000000000000000000, 0.0000000000000000000 ) ) ;
#225 = PRODUCT_DEFINITION ( 'UNKNOWN', '', #242, #132 ) ;
#226 = EDGE_LOOP ( 'NONE', ( #39 ) ) ;
#227 = EDGE_LOOP ( 'NONE', ( #188 ) ) ;
#228 = DIRECTION ( 'NONE',  ( 4.275831445896958607E-31, 1.000000000000000000, 1.224646799147353207E-16 ) ) ;
#229 = FACE_OUTER_BOUND ( 'NONE', #25, .T. ) ;
#230 = DIRECTION ( 'NONE',  ( 0.0000000000000000000, 1.000000000000000000, 0.0000000000000000000 ) ) ;
#231 = APPLICATION_CONTEXT ( 'configuration controlled 3d designs of mechanical parts and assemblies' ) ;
#232 = EDGE_CURVE ( 'NONE', #176, #176, #79, .T. ) ;
#233 = CARTESIAN_POINT ( 'NONE',  ( 1.326762908760390423E-13, -4.653657836759941941E-15, 38.00000000000000000 ) ) ;
#234 = AXIS2_PLACEMENT_3D ( 'NONE', #76, #148, #224 ) ;
#235 = LOCAL_TIME ( 8, 9, 59.00000000000000000, #108 ) ;
#236 = CC_DESIGN_DATE_AND_TIME_ASSIGNMENT ( #197, #106, ( #3 ) ) ;
#237 = DATE_AND_TIME ( #142, #87 ) ;
#238 = PERSON_AND_ORGANIZATION_ROLE ( 'design_owner' ) ;
#239 = SHAPE_DEFINITION_REPRESENTATION ( #67, #138 ) ;
#240 = CIRCLE ( 'NONE', #161, 0.7500000000000000000 ) ;
#241 = APPROVAL_PERSON_ORGANIZATION ( #200, #219, #145 ) ;
#242 = PRODUCT_DEFINITION_FORMATION_WITH_SPECIFIED_SOURCE ( 'ANY', '', #84, .NOT_KNOWN. ) ;
#243 = CYLINDRICAL_SURFACE ( 'NONE', #123, 0.7500000000000005551 ) ;
ENDSEC;
END-ISO-10303-21;
