ISO-10303-21;
HEADER;
FILE_DESCRIPTION (( 'STEP AP203' ),
    '1' );
FILE_NAME ('961240.step',
    '2021-11-24T07:09:59',
    ( '' ),
    ( '' ),
    'SwSTEP 2.0',
    'SolidWorks 2019',
    '' );
FILE_SCHEMA (( 'CONFIG_CONTROL_DESIGN' ));
ENDSEC;

DATA;
#1 = DESIGN_CONTEXT ( 'detailed design', #38, 'design' ) ;
#2 = AXIS2_PLACEMENT_3D ( 'NONE', #189, #26, #58 ) ;
#3 = FACE_OUTER_BOUND ( 'NONE', #165, .T. ) ;
#4 = LOCAL_TIME ( 8, 9, 59.00000000000000000, #229 ) ;
#5 = CIRCLE ( 'NONE', #147, 0.7500000000000000000 ) ;
#6 = VERTEX_POINT ( 'NONE', #148 ) ;
#7 = VERTEX_POINT ( 'NONE', #104 ) ;
#8 = DIRECTION ( 'NONE',  ( 3.491481338843133355E-15, -1.224646799147353207E-16, 1.000000000000000000 ) ) ;
#9 = APPROVAL_STATUS ( 'not_yet_approved' ) ;
#10 = DATE_AND_TIME ( #42, #4 ) ;
#11 = VERTEX_POINT ( 'NONE', #24 ) ;
#12 = CARTESIAN_POINT ( 'NONE',  ( 1.326762908760390423E-13, 8.998558695971103225E-33, 38.00000000000000000 ) ) ;
#13 = ORIENTED_EDGE ( 'NONE', *, *, #30, .F. ) ;
#14 = MANIFOLD_SOLID_BREP ( 'Corps-Déplacer/Copier1[1]', #194 ) ;
#15 = ORIENTED_EDGE ( 'NONE', *, *, #203, .T. ) ;
#16 = ORIENTED_EDGE ( 'NONE', *, *, #221, .T. ) ;
#17 = DIRECTION ( 'NONE',  ( -3.491481338843133355E-15, 1.224646799147353207E-16, -1.000000000000000000 ) ) ;
#18 = CIRCLE ( 'NONE', #133, 0.7500000000000011102 ) ;
#19 = SECURITY_CLASSIFICATION ( '', '', #57 ) ;
#20 = CONICAL_SURFACE ( 'NONE', #235, 1.200000000000003286, 0.7853981633974453924 ) ;
#21 =( LENGTH_UNIT ( ) NAMED_UNIT ( * ) SI_UNIT ( .MILLI., .METRE. ) );
#22 = ADVANCED_FACE ( 'NONE', ( #237, #67 ), #125, .T. ) ;
#23 = PERSON_AND_ORGANIZATION ( #227, #151 ) ;
#24 = CARTESIAN_POINT ( 'NONE',  ( 1.068957861474239405E-32, 0.07499999999999999722, 3.061616997868381631E-18 ) ) ;
#25 = DATE_TIME_ROLE ( 'creation_date' ) ;
#26 = DIRECTION ( 'NONE',  ( -3.491481338843133355E-15, 1.224646799147353207E-16, -1.000000000000000000 ) ) ;
#27 = CARTESIAN_POINT ( 'NONE',  ( 2.298071130742110643E-14, -8.060548464534433501E-16, 6.581937314617161583 ) ) ;
#28 = DIRECTION ( 'NONE',  ( 0.0000000000000000000, 0.0000000000000000000, 1.000000000000000000 ) ) ;
#29 = EDGE_LOOP ( 'NONE', ( #199 ) ) ;
#30 = EDGE_CURVE ( 'NONE', #161, #161, #220, .T. ) ;
#31 = EDGE_LOOP ( 'NONE', ( #114 ) ) ;
#32 = CC_DESIGN_APPROVAL ( #218, ( #19 ) ) ;
#33 = AXIS2_PLACEMENT_3D ( 'NONE', #230, #8, #59 ) ;
#34 = CARTESIAN_POINT ( 'NONE',  ( 6.475117143770108175E-15, -2.271165363538689339E-16, 1.854547258131865828 ) ) ;
#35 = CARTESIAN_POINT ( 'NONE',  ( 1.326762908760390423E-13, -4.653657836759941941E-15, 38.00000000000000000 ) ) ;
#36 = PERSON_AND_ORGANIZATION ( #227, #151 ) ;
#37 = DIRECTION ( 'NONE',  ( -3.491481338843133355E-15, 1.224646799147353207E-16, -1.000000000000000000 ) ) ;
#38 = APPLICATION_CONTEXT ( 'configuration controlled 3d designs of mechanical parts and assemblies' ) ;
#39 = CARTESIAN_POINT ( 'NONE',  ( 0.0000000000000000000, 0.0000000000000000000, 0.0000000000000000000 ) ) ;
#40 = PERSON_AND_ORGANIZATION_ROLE ( 'creator' ) ;
#41 = APPROVAL_PERSON_ORGANIZATION ( #155, #218, #47 ) ;
#42 = CALENDAR_DATE ( 2021, 24, 11 ) ;
#43 = PLANE ( 'NONE',  #33 ) ;
#44 = PRODUCT_DEFINITION ( 'UNKNOWN', '', #239, #1 ) ;
#45 = CARTESIAN_POINT ( 'NONE',  ( 1.316288464743861212E-13, 1.499999999999998668, 37.69999999999999574 ) ) ;
#46 = ADVANCED_FACE ( 'NONE', ( #3 ), #85, .F. ) ;
#47 = APPROVAL_ROLE ( '' ) ;
#48 = DIRECTION ( 'NONE',  ( 3.491481338843133355E-15, -1.224646799147353207E-16, 1.000000000000000000 ) ) ;
#49 = FACE_OUTER_BOUND ( 'NONE', #71, .T. ) ;
#50 = FACE_OUTER_BOUND ( 'NONE', #129, .T. ) ;
#51 = EDGE_LOOP ( 'NONE', ( #201 ) ) ;
#52 = APPROVAL_DATE_TIME ( #120, #81 ) ;
#53 = EDGE_LOOP ( 'NONE', ( #217 ) ) ;
#54 = CARTESIAN_POINT ( 'NONE',  ( -2.137915722948479358E-32, 7.498798913309288894E-34, -6.123233995736766344E-18 ) ) ;
#55 = ADVANCED_FACE ( 'NONE', ( #60 ), #78, .F. ) ;
#56 = DATE_AND_TIME ( #143, #149 ) ;
#57 = SECURITY_CLASSIFICATION_LEVEL ( 'unclassified' ) ;
#58 = DIRECTION ( 'NONE',  ( 0.0000000000000000000, 1.000000000000000000, 0.0000000000000000000 ) ) ;
#59 = DIRECTION ( 'NONE',  ( -4.275831445896958607E-31, -1.000000000000000000, -1.224646799147353207E-16 ) ) ;
#60 = FACE_OUTER_BOUND ( 'NONE', #53, .T. ) ;
#61 = COORDINATED_UNIVERSAL_TIME_OFFSET ( 1, 0, .AHEAD. ) ;
#62 = DIRECTION ( 'NONE',  ( 0.0000000000000000000, 1.000000000000000000, 0.0000000000000000000 ) ) ;
#63 = CARTESIAN_POINT ( 'NONE',  ( 6.475117143770108175E-15, -2.271165363538689339E-16, 1.854547258131865828 ) ) ;
#64 = DIRECTION ( 'NONE',  ( -4.275831445896958607E-31, -1.000000000000000000, -1.224646799147353207E-16 ) ) ;
#65 = AXIS2_PLACEMENT_3D ( 'NONE', #173, #121, #191 ) ;
#66 = CARTESIAN_POINT ( 'NONE',  ( 6.475117143770108964E-15, 5.624099184981963292E-33, 1.854547258131865828 ) ) ;
#67 = FACE_BOUND ( 'NONE', #51, .T. ) ;
#68 = ORIENTED_EDGE ( 'NONE', *, *, #131, .T. ) ;
#69 = CC_DESIGN_PERSON_AND_ORGANIZATION_ASSIGNMENT ( #36, #96, ( #222 ) ) ;
#70 = ORIENTED_EDGE ( 'NONE', *, *, #154, .T. ) ;
#71 = EDGE_LOOP ( 'NONE', ( #13 ) ) ;
#72 = DIRECTION ( 'NONE',  ( -3.491481338843133355E-15, 1.224646799147353207E-16, -1.000000000000000000 ) ) ;
#73 = CYLINDRICAL_SURFACE ( 'NONE', #159, 0.7500000000000005551 ) ;
#74 = AXIS2_PLACEMENT_3D ( 'NONE', #238, #28, #179 ) ;
#75 = ADVANCED_FACE ( 'NONE', ( #50, #192 ), #73, .T. ) ;
#76 = COORDINATED_UNIVERSAL_TIME_OFFSET ( 1, 0, .AHEAD. ) ;
#77 = FACE_OUTER_BOUND ( 'NONE', #167, .T. ) ;
#78 = PLANE ( 'NONE',  #216 ) ;
#79 = DIRECTION ( 'NONE',  ( -3.491481338843133355E-15, 1.224646799147353207E-16, -1.000000000000000000 ) ) ;
#80 = CIRCLE ( 'NONE', #242, 1.499999999999996891 ) ;
#81 = APPROVAL ( #9, 'UNSPECIFIED' ) ;
#82 = CYLINDRICAL_SURFACE ( 'NONE', #233, 1.500000000000000000 ) ;
#83 = PERSON_AND_ORGANIZATION ( #227, #151 ) ;
#84 = FACE_OUTER_BOUND ( 'NONE', #166, .T. ) ;
#85 = PLANE ( 'NONE',  #138 ) ;
#86 = CARTESIAN_POINT ( 'NONE',  ( -2.137915722948479358E-32, 7.498798913309288894E-34, -6.123233995736766344E-18 ) ) ;
#87 = ORIENTED_EDGE ( 'NONE', *, *, #203, .F. ) ;
#88 = EDGE_CURVE ( 'NONE', #228, #228, #18, .T. ) ;
#89 = EDGE_LOOP ( 'NONE', ( #16 ) ) ;
#90 = PRODUCT_DEFINITION_SHAPE ( 'NONE', 'NONE',  #44 ) ;
#91 = MANIFOLD_SOLID_BREP ( 'Corps-Déplacer/Copier1[2]', #130 ) ;
#92 = ORIENTED_EDGE ( 'NONE', *, *, #186, .T. ) ;
#93 = FACE_OUTER_BOUND ( 'NONE', #31, .T. ) ;
#94 = ADVANCED_FACE ( 'NONE', ( #97, #77 ), #99, .F. ) ;
#95 = CC_DESIGN_APPROVAL ( #81, ( #44 ) ) ;
#96 = PERSON_AND_ORGANIZATION_ROLE ( 'design_owner' ) ;
#97 = FACE_OUTER_BOUND ( 'NONE', #128, .T. ) ;
#98 = PERSON_AND_ORGANIZATION ( #227, #151 ) ;
#99 = TOROIDAL_SURFACE ( 'NONE', #164, 8.750000000000000000, 8.000000000000000000 ) ;
#100 = APPROVAL_STATUS ( 'not_yet_approved' ) ;
#101 = DIRECTION ( 'NONE',  ( -3.491481338843133355E-15, 1.224646799147353207E-16, -1.000000000000000000 ) ) ;
#102 = CC_DESIGN_PERSON_AND_ORGANIZATION_ASSIGNMENT ( #83, #40, ( #239 ) ) ;
#103 = DATE_TIME_ROLE ( 'classification_date' ) ;
#104 = CARTESIAN_POINT ( 'NONE',  ( 2.298071130742110643E-14, 1.499999999999996225, 6.581937314617161583 ) ) ;
#105 = LOCAL_TIME ( 8, 9, 59.00000000000000000, #225 ) ;
#106 = APPROVAL_DATE_TIME ( #56, #218 ) ;
#107 =( NAMED_UNIT ( * ) PLANE_ANGLE_UNIT ( ) SI_UNIT ( $, .RADIAN. ) );
#108 = CARTESIAN_POINT ( 'NONE',  ( 0.0000000000000000000, 0.0000000000000000000, 0.0000000000000000000 ) ) ;
#109 = EDGE_LOOP ( 'NONE', ( #70 ) ) ;
#110 = MECHANICAL_CONTEXT ( 'NONE', #112, 'mechanical' ) ;
#111 = CC_DESIGN_DATE_AND_TIME_ASSIGNMENT ( #207, #25, ( #44 ) ) ;
#112 = APPLICATION_CONTEXT ( 'configuration controlled 3d designs of mechanical parts and assemblies' ) ;
#113 = APPROVAL_PERSON_ORGANIZATION ( #122, #81, #163 ) ;
#114 = ORIENTED_EDGE ( 'NONE', *, *, #221, .F. ) ;
#115 = DIRECTION ( 'NONE',  ( -3.491481338843133355E-15, 1.224646799147353207E-16, -1.000000000000000000 ) ) ;
#116 = ADVANCED_FACE ( 'NONE', ( #93, #134 ), #20, .T. ) ;
#117 = DIRECTION ( 'NONE',  ( 4.275831445896958607E-31, 1.000000000000000000, 1.224646799147353207E-16 ) ) ;
#118 = DIRECTION ( 'NONE',  ( 0.0000000000000000000, 1.000000000000000000, 0.0000000000000000000 ) ) ;
#119 = PERSON_AND_ORGANIZATION ( #227, #151 ) ;
#120 = DATE_AND_TIME ( #136, #105 ) ;
#121 = DIRECTION ( 'NONE',  ( -3.491481338843133355E-15, 1.224646799147353207E-16, -1.000000000000000000 ) ) ;
#122 = PERSON_AND_ORGANIZATION ( #227, #151 ) ;
#123 = DATE_AND_TIME ( #226, #137 ) ;
#124 = CARTESIAN_POINT ( 'NONE',  ( 1.117274028429802674E-14, 0.7500000000000006661, 3.200000000000000178 ) ) ;
#125 = CONICAL_SURFACE ( 'NONE', #180, 0.07499999999999999722, 0.3490658503988666728 ) ;
#126 = DIRECTION ( 'NONE',  ( -4.275831445896958607E-31, -1.000000000000000000, -1.224646799147353207E-16 ) ) ;
#127 = APPLICATION_PROTOCOL_DEFINITION ( 'international standard', 'config_control_design', 1994, #112 ) ;
#128 = EDGE_LOOP ( 'NONE', ( #15 ) ) ;
#129 = EDGE_LOOP ( 'NONE', ( #196 ) ) ;
#130 = CLOSED_SHELL ( 'NONE', ( #46, #22, #205 ) ) ;
#131 = EDGE_CURVE ( 'NONE', #6, #6, #5, .T. ) ;
#132 = DIRECTION ( 'NONE',  ( 3.491481338843133355E-15, -1.224646799147353207E-16, 1.000000000000000000 ) ) ;
#133 = AXIS2_PLACEMENT_3D ( 'NONE', #187, #17, #118 ) ;
#134 = FACE_BOUND ( 'NONE', #109, .T. ) ;
#135 = SHAPE_DEFINITION_REPRESENTATION ( #90, #184 ) ;
#136 = CALENDAR_DATE ( 2021, 24, 11 ) ;
#137 = LOCAL_TIME ( 8, 9, 59.00000000000000000, #223 ) ;
#138 = AXIS2_PLACEMENT_3D ( 'NONE', #160, #190, #64 ) ;
#139 = CARTESIAN_POINT ( 'NONE',  ( 1.326762908760390423E-13, 1.199999999999998845, 38.00000000000000000 ) ) ;
#140 = CC_DESIGN_DATE_AND_TIME_ASSIGNMENT ( #123, #103, ( #19 ) ) ;
#141 = DIRECTION ( 'NONE',  ( -3.491481338843133355E-15, 1.224646799147353207E-16, -1.000000000000000000 ) ) ;
#142 = APPLICATION_PROTOCOL_DEFINITION ( 'international standard', 'config_control_design', 1994, #38 ) ;
#143 = CALENDAR_DATE ( 2021, 24, 11 ) ;
#144 = CARTESIAN_POINT ( 'NONE',  ( 6.475117143770108175E-15, 0.7499999999999997780, 1.854547258131865828 ) ) ;
#145 = DIRECTION ( 'NONE',  ( -3.491481338843133355E-15, 1.224646799147353207E-16, -1.000000000000000000 ) ) ;
#146 = LOCAL_TIME ( 8, 9, 59.00000000000000000, #76 ) ;
#147 = AXIS2_PLACEMENT_3D ( 'NONE', #63, #206, #177 ) ;
#148 = CARTESIAN_POINT ( 'NONE',  ( 6.475117143770108175E-15, 0.7499999999999997780, 1.854547258131865828 ) ) ;
#149 = LOCAL_TIME ( 8, 9, 59.00000000000000000, #61 ) ;
#150 = ADVANCED_FACE ( 'NONE', ( #84 ), #43, .F. ) ;
#151 = ORGANIZATION ( 'UNSPECIFIED', 'UNSPECIFIED', '' ) ;
#152 = DIRECTION ( 'NONE',  ( 4.355100981429076768E-31, 1.000000000000000000, 1.224646799147353207E-16 ) ) ;
#153 = APPROVAL_DATE_TIME ( #10, #200 ) ;
#154 = EDGE_CURVE ( 'NONE', #208, #208, #172, .T. ) ;
#155 = PERSON_AND_ORGANIZATION ( #227, #151 ) ;
#156 = APPROVAL_ROLE ( '' ) ;
#157 = DIRECTION ( 'NONE',  ( 0.0000000000000000000, 1.000000000000000000, 0.0000000000000000000 ) ) ;
#158 = CIRCLE ( 'NONE', #2, 1.500000000000003331 ) ;
#159 = AXIS2_PLACEMENT_3D ( 'NONE', #39, #37, #117 ) ;
#160 = CARTESIAN_POINT ( 'NONE',  ( -1.068957861474239679E-32, 3.749399456654644447E-34, -3.061616997868383172E-18 ) ) ;
#161 = VERTEX_POINT ( 'NONE', #144 ) ;
#162 = PRODUCT_RELATED_PRODUCT_CATEGORY ( 'detail', '', ( #222 ) ) ;
#163 = APPROVAL_ROLE ( '' ) ;
#164 = AXIS2_PLACEMENT_3D ( 'NONE', #169, #72, #152 ) ;
#165 = EDGE_LOOP ( 'NONE', ( #92 ) ) ;
#166 = EDGE_LOOP ( 'NONE', ( #68 ) ) ;
#167 = EDGE_LOOP ( 'NONE', ( #215 ) ) ;
#168 = CC_DESIGN_PERSON_AND_ORGANIZATION_ASSIGNMENT ( #119, #174, ( #19 ) ) ;
#169 = CARTESIAN_POINT ( 'NONE',  ( 1.117274028429802674E-14, 0.0000000000000000000, 3.200000000000000178 ) ) ;
#170 = UNCERTAINTY_MEASURE_WITH_UNIT (LENGTH_MEASURE( 1.000000000000000082E-05 ), #21, 'distance_accuracy_value', 'NONE');
#171 = CC_DESIGN_APPROVAL ( #200, ( #239 ) ) ;
#172 = CIRCLE ( 'NONE', #65, 1.200000000000003286 ) ;
#173 = CARTESIAN_POINT ( 'NONE',  ( 1.326762908760390423E-13, -4.653657836759941941E-15, 38.00000000000000000 ) ) ;
#174 = PERSON_AND_ORGANIZATION_ROLE ( 'classification_officer' ) ;
#175 = DIRECTION ( 'NONE',  ( -3.491481338843133355E-15, 1.224646799147353207E-16, -1.000000000000000000 ) ) ;
#176 = PERSON_AND_ORGANIZATION ( #227, #151 ) ;
#177 = DIRECTION ( 'NONE',  ( 0.0000000000000000000, 1.000000000000000000, 0.0000000000000000000 ) ) ;
#178 = FACE_OUTER_BOUND ( 'NONE', #89, .T. ) ;
#179 = DIRECTION ( 'NONE',  ( 1.000000000000000000, 0.0000000000000000000, 0.0000000000000000000 ) ) ;
#180 = AXIS2_PLACEMENT_3D ( 'NONE', #54, #132, #219 ) ;
#181 = AXIS2_PLACEMENT_3D ( 'NONE', #86, #101, #234 ) ;
#182 = EDGE_LOOP ( 'NONE', ( #87 ) ) ;
#183 = EDGE_LOOP ( 'NONE', ( #240 ) ) ;
#184 = ADVANCED_BREP_SHAPE_REPRESENTATION ( '961240', ( #14, #91, #74 ), #198 ) ;
#185 = CC_DESIGN_PERSON_AND_ORGANIZATION_ASSIGNMENT ( #23, #210, ( #239 ) ) ;
#186 = EDGE_CURVE ( 'NONE', #11, #11, #202, .T. ) ;
#187 = CARTESIAN_POINT ( 'NONE',  ( 1.117274028429802674E-14, -3.918869757271530460E-16, 3.200000000000000178 ) ) ;
#188 = DIRECTION ( 'NONE',  ( 0.0000000000000000000, 1.000000000000000000, 0.0000000000000000000 ) ) ;
#189 = CARTESIAN_POINT ( 'NONE',  ( 1.316288464743861212E-13, -4.616918432785521081E-15, 37.69999999999999574 ) ) ;
#190 = DIRECTION ( 'NONE',  ( 3.491481338843133355E-15, -1.224646799147353207E-16, 1.000000000000000000 ) ) ;
#191 = DIRECTION ( 'NONE',  ( 0.0000000000000000000, 1.000000000000000000, 0.0000000000000000000 ) ) ;
#192 = FACE_OUTER_BOUND ( 'NONE', #29, .T. ) ;
#193 = APPROVAL_STATUS ( 'not_yet_approved' ) ;
#194 = CLOSED_SHELL ( 'NONE', ( #150, #75, #94, #232, #116, #55 ) ) ;
#195 = PLANE ( 'NONE',  #197 ) ;
#196 = ORIENTED_EDGE ( 'NONE', *, *, #88, .T. ) ;
#197 = AXIS2_PLACEMENT_3D ( 'NONE', #66, #48, #126 ) ;
#198 =( GEOMETRIC_REPRESENTATION_CONTEXT ( 3 ) GLOBAL_UNCERTAINTY_ASSIGNED_CONTEXT ( ( #170 ) ) GLOBAL_UNIT_ASSIGNED_CONTEXT ( ( #21, #107, #214 ) ) REPRESENTATION_CONTEXT ( 'NONE', 'WORKASPACE' ) );
#199 = ORIENTED_EDGE ( 'NONE', *, *, #131, .F. ) ;
#200 = APPROVAL ( #193, 'UNSPECIFIED' ) ;
#201 = ORIENTED_EDGE ( 'NONE', *, *, #186, .F. ) ;
#202 = CIRCLE ( 'NONE', #181, 0.07499999999999999722 ) ;
#203 = EDGE_CURVE ( 'NONE', #7, #7, #80, .T. ) ;
#204 = CC_DESIGN_SECURITY_CLASSIFICATION ( #19, ( #239 ) ) ;
#205 = ADVANCED_FACE ( 'NONE', ( #49 ), #195, .T. ) ;
#206 = DIRECTION ( 'NONE',  ( -3.491481338843133355E-15, 1.224646799147353207E-16, -1.000000000000000000 ) ) ;
#207 = DATE_AND_TIME ( #224, #146 ) ;
#208 = VERTEX_POINT ( 'NONE', #139 ) ;
#209 = DIRECTION ( 'NONE',  ( 4.275831445896958607E-31, 1.000000000000000000, 1.224646799147353207E-16 ) ) ;
#210 = PERSON_AND_ORGANIZATION_ROLE ( 'design_supplier' ) ;
#211 = FACE_OUTER_BOUND ( 'NONE', #182, .T. ) ;
#212 = APPROVAL_PERSON_ORGANIZATION ( #98, #200, #156 ) ;
#213 = DIRECTION ( 'NONE',  ( 4.275831445896959482E-31, 1.000000000000000000, 1.224646799147353207E-16 ) ) ;
#214 =( NAMED_UNIT ( * ) SI_UNIT ( $, .STERADIAN. ) SOLID_ANGLE_UNIT ( ) );
#215 = ORIENTED_EDGE ( 'NONE', *, *, #88, .F. ) ;
#216 = AXIS2_PLACEMENT_3D ( 'NONE', #12, #141, #209 ) ;
#217 = ORIENTED_EDGE ( 'NONE', *, *, #154, .F. ) ;
#218 = APPROVAL ( #100, 'UNSPECIFIED' ) ;
#219 = DIRECTION ( 'NONE',  ( -4.275831445896959482E-31, -1.000000000000000000, -1.224646799147352961E-16 ) ) ;
#220 = CIRCLE ( 'NONE', #241, 0.7500000000000000000 ) ;
#221 = EDGE_CURVE ( 'NONE', #231, #231, #158, .T. ) ;
#222 = PRODUCT ( '961240', '961240', '', ( #110 ) ) ;
#223 = COORDINATED_UNIVERSAL_TIME_OFFSET ( 1, 0, .AHEAD. ) ;
#224 = CALENDAR_DATE ( 2021, 24, 11 ) ;
#225 = COORDINATED_UNIVERSAL_TIME_OFFSET ( 1, 0, .AHEAD. ) ;
#226 = CALENDAR_DATE ( 2021, 24, 11 ) ;
#227 = PERSON ( 'UNSPECIFIED', 'UNSPECIFIED', 'UNSPECIFIED', ('UNSPECIFIED'), ('UNSPECIFIED'), ('UNSPECIFIED') ) ;
#228 = VERTEX_POINT ( 'NONE', #124 ) ;
#229 = COORDINATED_UNIVERSAL_TIME_OFFSET ( 1, 0, .AHEAD. ) ;
#230 = CARTESIAN_POINT ( 'NONE',  ( 6.475117143770108964E-15, 5.624099184981963292E-33, 1.854547258131865828 ) ) ;
#231 = VERTEX_POINT ( 'NONE', #45 ) ;
#232 = ADVANCED_FACE ( 'NONE', ( #211, #178 ), #82, .T. ) ;
#233 = AXIS2_PLACEMENT_3D ( 'NONE', #108, #145, #213 ) ;
#234 = DIRECTION ( 'NONE',  ( 4.275831445896958607E-31, 1.000000000000000000, 1.224646799147352961E-16 ) ) ;
#235 = AXIS2_PLACEMENT_3D ( 'NONE', #35, #79, #157 ) ;
#236 = CC_DESIGN_PERSON_AND_ORGANIZATION_ASSIGNMENT ( #176, #243, ( #44 ) ) ;
#237 = FACE_OUTER_BOUND ( 'NONE', #183, .T. ) ;
#238 = CARTESIAN_POINT ( 'NONE',  ( 0.0000000000000000000, 0.0000000000000000000, 0.0000000000000000000 ) ) ;
#239 = PRODUCT_DEFINITION_FORMATION_WITH_SPECIFIED_SOURCE ( 'ANY', '', #222, .NOT_KNOWN. ) ;
#240 = ORIENTED_EDGE ( 'NONE', *, *, #30, .T. ) ;
#241 = AXIS2_PLACEMENT_3D ( 'NONE', #34, #115, #188 ) ;
#242 = AXIS2_PLACEMENT_3D ( 'NONE', #27, #175, #62 ) ;
#243 = PERSON_AND_ORGANIZATION_ROLE ( 'creator' ) ;
ENDSEC;
END-ISO-10303-21;
