ISO-10303-21;
HEADER;
FILE_DESCRIPTION (( 'STEP AP203' ),
    '1' );
FILE_NAME ('961239.step',
    '2021-11-24T07:09:58',
    ( '' ),
    ( '' ),
    'SwSTEP 2.0',
    'SolidWorks 2019',
    '' );
FILE_SCHEMA (( 'CONFIG_CONTROL_DESIGN' ));
ENDSEC;

DATA;
#1 = CARTESIAN_POINT ( 'NONE',  ( 1.117274028429802674E-14, 0.7500000000000006661, 3.200000000000000178 ) ) ;
#2 =( NAMED_UNIT ( * ) SI_UNIT ( $, .STERADIAN. ) SOLID_ANGLE_UNIT ( ) );
#3 = ADVANCED_FACE ( 'NONE', ( #150, #134 ), #152, .F. ) ;
#4 = MECHANICAL_CONTEXT ( 'NONE', #205, 'mechanical' ) ;
#5 = CIRCLE ( 'NONE', #169, 0.7500000000000011102 ) ;
#6 = EDGE_LOOP ( 'NONE', ( #63 ) ) ;
#7 = EDGE_LOOP ( 'NONE', ( #78 ) ) ;
#8 = APPROVAL_PERSON_ORGANIZATION ( #43, #122, #15 ) ;
#9 = EDGE_LOOP ( 'NONE', ( #45 ) ) ;
#10 = CYLINDRICAL_SURFACE ( 'NONE', #146, 1.500000000000000000 ) ;
#11 = DIRECTION ( 'NONE',  ( -3.491481338843133355E-15, 1.224646799147353207E-16, -1.000000000000000000 ) ) ;
#12 = AXIS2_PLACEMENT_3D ( 'NONE', #178, #54, #220 ) ;
#13 = DIRECTION ( 'NONE',  ( 0.0000000000000000000, 1.000000000000000000, 0.0000000000000000000 ) ) ;
#14 = DIRECTION ( 'NONE',  ( 3.491481338843133355E-15, -1.224646799147353207E-16, 1.000000000000000000 ) ) ;
#15 = APPROVAL_ROLE ( '' ) ;
#16 = PERSON_AND_ORGANIZATION_ROLE ( 'classification_officer' ) ;
#17 = DATE_AND_TIME ( #204, #172 ) ;
#18 = AXIS2_PLACEMENT_3D ( 'NONE', #210, #164, #167 ) ;
#19 = APPROVAL_ROLE ( '' ) ;
#20 =( LENGTH_UNIT ( ) NAMED_UNIT ( * ) SI_UNIT ( .MILLI., .METRE. ) );
#21 = EDGE_CURVE ( 'NONE', #186, #186, #214, .T. ) ;
#22 = DESIGN_CONTEXT ( 'detailed design', #189, 'design' ) ;
#23 = CC_DESIGN_PERSON_AND_ORGANIZATION_ASSIGNMENT ( #202, #16, ( #127 ) ) ;
#24 = VERTEX_POINT ( 'NONE', #129 ) ;
#25 = AXIS2_PLACEMENT_3D ( 'NONE', #116, #143, #227 ) ;
#26 = EDGE_LOOP ( 'NONE', ( #97 ) ) ;
#27 = EDGE_LOOP ( 'NONE', ( #219 ) ) ;
#28 = ORIENTED_EDGE ( 'NONE', *, *, #60, .F. ) ;
#29 = LOCAL_TIME ( 8, 9, 58.00000000000000000, #55 ) ;
#30 = ORIENTED_EDGE ( 'NONE', *, *, #187, .T. ) ;
#31 = CARTESIAN_POINT ( 'NONE',  ( -1.710332578358783705E-32, 5.999039130647431458E-34, -4.898587196589413537E-18 ) ) ;
#32 = FACE_OUTER_BOUND ( 'NONE', #9, .T. ) ;
#33 = FACE_OUTER_BOUND ( 'NONE', #217, .T. ) ;
#34 = CARTESIAN_POINT ( 'NONE',  ( 0.0000000000000000000, 0.0000000000000000000, 0.0000000000000000000 ) ) ;
#35 = PERSON_AND_ORGANIZATION_ROLE ( 'creator' ) ;
#36 = ADVANCED_FACE ( 'NONE', ( #33 ), #85, .F. ) ;
#37 = DATE_AND_TIME ( #206, #70 ) ;
#38 = AXIS2_PLACEMENT_3D ( 'NONE', #226, #14, #120 ) ;
#39 = VERTEX_POINT ( 'NONE', #109 ) ;
#40 = CARTESIAN_POINT ( 'NONE',  ( 6.714936297243076371E-15, 0.7499999999999997780, 1.923234193618231336 ) ) ;
#41 = CC_DESIGN_PERSON_AND_ORGANIZATION_ASSIGNMENT ( #239, #72, ( #107 ) ) ;
#42 = CARTESIAN_POINT ( 'NONE',  ( 1.316288464743861212E-13, 1.499999999999998668, 37.69999999999999574 ) ) ;
#43 = PERSON_AND_ORGANIZATION ( #216, #163 ) ;
#44 = ORIENTED_EDGE ( 'NONE', *, *, #174, .T. ) ;
#45 = ORIENTED_EDGE ( 'NONE', *, *, #21, .F. ) ;
#46 = EDGE_LOOP ( 'NONE', ( #77 ) ) ;
#47 = CONICAL_SURFACE ( 'NONE', #38, 0.05000000000000000278, 0.3490658503988666173 ) ;
#48 = DIRECTION ( 'NONE',  ( -3.491481338843133355E-15, 1.224646799147353207E-16, -1.000000000000000000 ) ) ;
#49 = FACE_BOUND ( 'NONE', #61, .T. ) ;
#50 = CARTESIAN_POINT ( 'NONE',  ( 6.714936297243076371E-15, -2.355282599225307736E-16, 1.923234193618231336 ) ) ;
#51 = AXIS2_PLACEMENT_3D ( 'NONE', #126, #211, #59 ) ;
#52 = DIRECTION ( 'NONE',  ( -3.491481338843133355E-15, 1.224646799147353207E-16, -1.000000000000000000 ) ) ;
#53 = DATE_TIME_ROLE ( 'creation_date' ) ;
#54 = DIRECTION ( 'NONE',  ( -3.491481338843133355E-15, 1.224646799147353207E-16, -1.000000000000000000 ) ) ;
#55 = COORDINATED_UNIVERSAL_TIME_OFFSET ( 1, 0, .AHEAD. ) ;
#56 = CIRCLE ( 'NONE', #12, 0.7500000000000000000 ) ;
#57 = COORDINATED_UNIVERSAL_TIME_OFFSET ( 1, 0, .AHEAD. ) ;
#58 = VERTEX_POINT ( 'NONE', #40 ) ;
#59 = DIRECTION ( 'NONE',  ( -4.275831445896958607E-31, -1.000000000000000000, -1.224646799147353207E-16 ) ) ;
#60 = EDGE_CURVE ( 'NONE', #93, #93, #234, .T. ) ;
#61 = EDGE_LOOP ( 'NONE', ( #44 ) ) ;
#62 = CC_DESIGN_APPROVAL ( #122, ( #96 ) ) ;
#63 = ORIENTED_EDGE ( 'NONE', *, *, #174, .F. ) ;
#64 = EDGE_LOOP ( 'NONE', ( #171 ) ) ;
#65 = PRODUCT_DEFINITION_SHAPE ( 'NONE', 'NONE',  #96 ) ;
#66 = CONICAL_SURFACE ( 'NONE', #25, 1.200000000000003286, 0.7853981633974453924 ) ;
#67 = FACE_OUTER_BOUND ( 'NONE', #231, .T. ) ;
#68 = DIRECTION ( 'NONE',  ( 0.0000000000000000000, 1.000000000000000000, 0.0000000000000000000 ) ) ;
#69 = DIRECTION ( 'NONE',  ( 4.275831445896958607E-31, 1.000000000000000000, 1.224646799147353207E-16 ) ) ;
#70 = LOCAL_TIME ( 8, 9, 58.00000000000000000, #184 ) ;
#71 = DIRECTION ( 'NONE',  ( -3.491481338843133355E-15, 1.224646799147353207E-16, -1.000000000000000000 ) ) ;
#72 = PERSON_AND_ORGANIZATION_ROLE ( 'creator' ) ;
#73 = SECURITY_CLASSIFICATION_LEVEL ( 'unclassified' ) ;
#74 = VERTEX_POINT ( 'NONE', #208 ) ;
#75 = CIRCLE ( 'NONE', #124, 0.7500000000000000000 ) ;
#76 = MANIFOLD_SOLID_BREP ( 'Corps-Déplacer/Copier1[2]', #135 ) ;
#77 = ORIENTED_EDGE ( 'NONE', *, *, #21, .T. ) ;
#78 = ORIENTED_EDGE ( 'NONE', *, *, #166, .F. ) ;
#79 = ORIENTED_EDGE ( 'NONE', *, *, #166, .T. ) ;
#80 = MANIFOLD_SOLID_BREP ( 'Corps-Déplacer/Copier1[1]', #198 ) ;
#81 = ADVANCED_FACE ( 'NONE', ( #199, #156 ), #47, .T. ) ;
#82 = DIRECTION ( 'NONE',  ( -3.491481338843133355E-15, 1.224646799147353207E-16, -1.000000000000000000 ) ) ;
#83 = AXIS2_PLACEMENT_3D ( 'NONE', #31, #98, #147 ) ;
#84 = PLANE ( 'NONE',  #182 ) ;
#85 = PLANE ( 'NONE',  #177 ) ;
#86 = CARTESIAN_POINT ( 'NONE',  ( 0.0000000000000000000, 0.0000000000000000000, 0.0000000000000000000 ) ) ;
#87 = PERSON_AND_ORGANIZATION ( #216, #163 ) ;
#88 = ADVANCED_FACE ( 'NONE', ( #222 ), #224, .F. ) ;
#89 = ADVANCED_FACE ( 'NONE', ( #32, #236 ), #10, .T. ) ;
#90 = PERSON_AND_ORGANIZATION ( #216, #163 ) ;
#91 = PERSON_AND_ORGANIZATION_ROLE ( 'design_supplier' ) ;
#92 = CC_DESIGN_SECURITY_CLASSIFICATION ( #127, ( #107 ) ) ;
#93 = VERTEX_POINT ( 'NONE', #42 ) ;
#94 = AXIS2_PLACEMENT_3D ( 'NONE', #175, #71, #69 ) ;
#95 = EDGE_LOOP ( 'NONE', ( #79 ) ) ;
#96 = PRODUCT_DEFINITION ( 'UNKNOWN', '', #107, #22 ) ;
#97 = ORIENTED_EDGE ( 'NONE', *, *, #60, .T. ) ;
#98 = DIRECTION ( 'NONE',  ( -3.491481338843133355E-15, 1.224646799147353207E-16, -1.000000000000000000 ) ) ;
#99 = DIRECTION ( 'NONE',  ( -4.275831445896958607E-31, -1.000000000000000000, -1.224646799147353207E-16 ) ) ;
#100 = EDGE_CURVE ( 'NONE', #58, #58, #75, .T. ) ;
#101 = PRODUCT ( '961239', '961239', '', ( #4 ) ) ;
#102 = DIRECTION ( 'NONE',  ( -3.491481338843133355E-15, 1.224646799147353207E-16, -1.000000000000000000 ) ) ;
#103 = DIRECTION ( 'NONE',  ( -3.491481338843133355E-15, 1.224646799147353207E-16, -1.000000000000000000 ) ) ;
#104 = COORDINATED_UNIVERSAL_TIME_OFFSET ( 1, 0, .AHEAD. ) ;
#105 = ADVANCED_FACE ( 'NONE', ( #153, #139 ), #179, .T. ) ;
#106 = DATE_TIME_ROLE ( 'classification_date' ) ;
#107 = PRODUCT_DEFINITION_FORMATION_WITH_SPECIFIED_SOURCE ( 'ANY', '', #101, .NOT_KNOWN. ) ;
#108 = AXIS2_PLACEMENT_3D ( 'NONE', #173, #191, #151 ) ;
#109 = CARTESIAN_POINT ( 'NONE',  ( 4.275831445896955842E-33, 0.05000000000000000278, 1.224646799147352614E-18 ) ) ;
#110 = UNCERTAINTY_MEASURE_WITH_UNIT (LENGTH_MEASURE( 1.000000000000000082E-05 ), #20, 'distance_accuracy_value', 'NONE');
#111 = FACE_OUTER_BOUND ( 'NONE', #212, .T. ) ;
#112 =( NAMED_UNIT ( * ) PLANE_ANGLE_UNIT ( ) SI_UNIT ( $, .RADIAN. ) );
#113 = CC_DESIGN_PERSON_AND_ORGANIZATION_ASSIGNMENT ( #132, #213, ( #101 ) ) ;
#114 = ORIENTED_EDGE ( 'NONE', *, *, #218, .T. ) ;
#115 = DIRECTION ( 'NONE',  ( 3.491481338843133355E-15, -1.224646799147353207E-16, 1.000000000000000000 ) ) ;
#116 = CARTESIAN_POINT ( 'NONE',  ( 1.326762908760390423E-13, -4.653657836759941941E-15, 38.00000000000000000 ) ) ;
#117 = DIRECTION ( 'NONE',  ( 3.491481338843133355E-15, -1.224646799147353207E-16, 1.000000000000000000 ) ) ;
#118 = DIRECTION ( 'NONE',  ( -4.275831445896958607E-31, -1.000000000000000000, -1.224646799147353207E-16 ) ) ;
#119 = CALENDAR_DATE ( 2021, 24, 11 ) ;
#120 = DIRECTION ( 'NONE',  ( -4.275831445896958607E-31, -1.000000000000000000, -1.224646799147353207E-16 ) ) ;
#121 = APPROVAL_ROLE ( '' ) ;
#122 = APPROVAL ( #230, 'UNSPECIFIED' ) ;
#123 = APPROVAL_DATE_TIME ( #162, #145 ) ;
#124 = AXIS2_PLACEMENT_3D ( 'NONE', #50, #103, #68 ) ;
#125 = SHAPE_DEFINITION_REPRESENTATION ( #65, #131 ) ;
#126 = CARTESIAN_POINT ( 'NONE',  ( -8.551662891793918527E-33, 2.999519565323715729E-34, -2.449293598294706769E-18 ) ) ;
#127 = SECURITY_CLASSIFICATION ( '', '', #73 ) ;
#128 = ADVANCED_FACE ( 'NONE', ( #142 ), #84, .T. ) ;
#129 = CARTESIAN_POINT ( 'NONE',  ( 6.714936297243076371E-15, 0.7499999999999997780, 1.923234193618231336 ) ) ;
#130 = APPLICATION_PROTOCOL_DEFINITION ( 'international standard', 'config_control_design', 1994, #189 ) ;
#131 = ADVANCED_BREP_SHAPE_REPRESENTATION ( '961239', ( #80, #76, #18 ), #183 ) ;
#132 = PERSON_AND_ORGANIZATION ( #216, #163 ) ;
#133 = CC_DESIGN_APPROVAL ( #145, ( #107 ) ) ;
#134 = FACE_OUTER_BOUND ( 'NONE', #7, .T. ) ;
#135 = CLOSED_SHELL ( 'NONE', ( #223, #81, #128 ) ) ;
#136 = ORIENTED_EDGE ( 'NONE', *, *, #218, .F. ) ;
#137 = ADVANCED_FACE ( 'NONE', ( #67, #49 ), #66, .T. ) ;
#138 = DIRECTION ( 'NONE',  ( 0.0000000000000000000, 1.000000000000000000, 0.0000000000000000000 ) ) ;
#139 = FACE_OUTER_BOUND ( 'NONE', #27, .T. ) ;
#140 = CARTESIAN_POINT ( 'NONE',  ( 1.316288464743861212E-13, -4.616918432785521081E-15, 37.69999999999999574 ) ) ;
#141 = LOCAL_TIME ( 8, 9, 58.00000000000000000, #57 ) ;
#142 = FACE_OUTER_BOUND ( 'NONE', #64, .T. ) ;
#143 = DIRECTION ( 'NONE',  ( -3.491481338843133355E-15, 1.224646799147353207E-16, -1.000000000000000000 ) ) ;
#144 = PERSON_AND_ORGANIZATION ( #216, #163 ) ;
#145 = APPROVAL ( #242, 'UNSPECIFIED' ) ;
#146 = AXIS2_PLACEMENT_3D ( 'NONE', #34, #11, #176 ) ;
#147 = DIRECTION ( 'NONE',  ( 4.275831445896958607E-31, 1.000000000000000000, 1.224646799147353207E-16 ) ) ;
#148 = CC_DESIGN_PERSON_AND_ORGANIZATION_ASSIGNMENT ( #144, #91, ( #107 ) ) ;
#149 = CARTESIAN_POINT ( 'NONE',  ( 2.298071130742110643E-14, 1.499999999999996225, 6.581937314617161583 ) ) ;
#150 = FACE_OUTER_BOUND ( 'NONE', #46, .T. ) ;
#151 = DIRECTION ( 'NONE',  ( 4.355100981429076768E-31, 1.000000000000000000, 1.224646799147353207E-16 ) ) ;
#152 = TOROIDAL_SURFACE ( 'NONE', #108, 8.750000000000000000, 8.000000000000000000 ) ;
#153 = FACE_OUTER_BOUND ( 'NONE', #95, .T. ) ;
#154 = CIRCLE ( 'NONE', #203, 1.200000000000003286 ) ;
#155 = CARTESIAN_POINT ( 'NONE',  ( 6.714936297243076371E-15, 5.624099184981963292E-33, 1.923234193618231336 ) ) ;
#156 = FACE_BOUND ( 'NONE', #170, .T. ) ;
#157 = APPROVAL_STATUS ( 'not_yet_approved' ) ;
#158 = APPROVAL ( #157, 'UNSPECIFIED' ) ;
#159 = DIRECTION ( 'NONE',  ( 0.0000000000000000000, 1.000000000000000000, 0.0000000000000000000 ) ) ;
#160 = CALENDAR_DATE ( 2021, 24, 11 ) ;
#161 = PERSON_AND_ORGANIZATION ( #216, #163 ) ;
#162 = DATE_AND_TIME ( #160, #225 ) ;
#163 = ORGANIZATION ( 'UNSPECIFIED', 'UNSPECIFIED', '' ) ;
#164 = DIRECTION ( 'NONE',  ( 0.0000000000000000000, 0.0000000000000000000, 1.000000000000000000 ) ) ;
#165 = APPLICATION_PROTOCOL_DEFINITION ( 'international standard', 'config_control_design', 1994, #205 ) ;
#166 = EDGE_CURVE ( 'NONE', #185, #185, #5, .T. ) ;
#167 = DIRECTION ( 'NONE',  ( 1.000000000000000000, 0.0000000000000000000, 0.0000000000000000000 ) ) ;
#168 = PLANE ( 'NONE',  #51 ) ;
#169 = AXIS2_PLACEMENT_3D ( 'NONE', #235, #52, #195 ) ;
#170 = EDGE_LOOP ( 'NONE', ( #136 ) ) ;
#171 = ORIENTED_EDGE ( 'NONE', *, *, #100, .F. ) ;
#172 = LOCAL_TIME ( 8, 9, 58.00000000000000000, #104 ) ;
#173 = CARTESIAN_POINT ( 'NONE',  ( 1.117274028429802674E-14, 0.0000000000000000000, 3.200000000000000178 ) ) ;
#174 = EDGE_CURVE ( 'NONE', #74, #74, #154, .T. ) ;
#175 = CARTESIAN_POINT ( 'NONE',  ( 1.326762908760390423E-13, 8.998558695971103225E-33, 38.00000000000000000 ) ) ;
#176 = DIRECTION ( 'NONE',  ( 4.275831445896959482E-31, 1.000000000000000000, 1.224646799147353207E-16 ) ) ;
#177 = AXIS2_PLACEMENT_3D ( 'NONE', #238, #115, #118 ) ;
#178 = CARTESIAN_POINT ( 'NONE',  ( 6.714936297243076371E-15, -2.355282599225307736E-16, 1.923234193618231336 ) ) ;
#179 = CYLINDRICAL_SURFACE ( 'NONE', #229, 0.7500000000000005551 ) ;
#180 = COORDINATED_UNIVERSAL_TIME_OFFSET ( 1, 0, .AHEAD. ) ;
#181 = APPROVAL_DATE_TIME ( #200, #122 ) ;
#182 = AXIS2_PLACEMENT_3D ( 'NONE', #155, #117, #99 ) ;
#183 =( GEOMETRIC_REPRESENTATION_CONTEXT ( 3 ) GLOBAL_UNCERTAINTY_ASSIGNED_CONTEXT ( ( #110 ) ) GLOBAL_UNIT_ASSIGNED_CONTEXT ( ( #20, #112, #2 ) ) REPRESENTATION_CONTEXT ( 'NONE', 'WORKASPACE' ) );
#184 = COORDINATED_UNIVERSAL_TIME_OFFSET ( 1, 0, .AHEAD. ) ;
#185 = VERTEX_POINT ( 'NONE', #1 ) ;
#186 = VERTEX_POINT ( 'NONE', #149 ) ;
#187 = EDGE_CURVE ( 'NONE', #24, #24, #56, .T. ) ;
#188 = CIRCLE ( 'NONE', #83, 0.05000000000000000278 ) ;
#189 = APPLICATION_CONTEXT ( 'configuration controlled 3d designs of mechanical parts and assemblies' ) ;
#190 = EDGE_LOOP ( 'NONE', ( #215 ) ) ;
#191 = DIRECTION ( 'NONE',  ( -3.491481338843133355E-15, 1.224646799147353207E-16, -1.000000000000000000 ) ) ;
#192 = CARTESIAN_POINT ( 'NONE',  ( 2.298071130742110643E-14, -8.060548464534433501E-16, 6.581937314617161583 ) ) ;
#193 = PRODUCT_RELATED_PRODUCT_CATEGORY ( 'detail', '', ( #101 ) ) ;
#194 = DIRECTION ( 'NONE',  ( -3.491481338843133355E-15, 1.224646799147353207E-16, -1.000000000000000000 ) ) ;
#195 = DIRECTION ( 'NONE',  ( 0.0000000000000000000, 1.000000000000000000, 0.0000000000000000000 ) ) ;
#196 = APPROVAL_PERSON_ORGANIZATION ( #87, #145, #19 ) ;
#197 = CARTESIAN_POINT ( 'NONE',  ( 1.326762908760390423E-13, -4.653657836759941941E-15, 38.00000000000000000 ) ) ;
#198 = CLOSED_SHELL ( 'NONE', ( #36, #105, #3, #89, #137, #88 ) ) ;
#199 = FACE_OUTER_BOUND ( 'NONE', #190, .T. ) ;
#200 = DATE_AND_TIME ( #119, #29 ) ;
#201 = DATE_AND_TIME ( #228, #141 ) ;
#202 = PERSON_AND_ORGANIZATION ( #216, #163 ) ;
#203 = AXIS2_PLACEMENT_3D ( 'NONE', #197, #102, #13 ) ;
#204 = CALENDAR_DATE ( 2021, 24, 11 ) ;
#205 = APPLICATION_CONTEXT ( 'configuration controlled 3d designs of mechanical parts and assemblies' ) ;
#206 = CALENDAR_DATE ( 2021, 24, 11 ) ;
#207 = CC_DESIGN_APPROVAL ( #158, ( #127 ) ) ;
#208 = CARTESIAN_POINT ( 'NONE',  ( 1.326762908760390423E-13, 1.199999999999998845, 38.00000000000000000 ) ) ;
#209 = CC_DESIGN_DATE_AND_TIME_ASSIGNMENT ( #17, #53, ( #96 ) ) ;
#210 = CARTESIAN_POINT ( 'NONE',  ( 0.0000000000000000000, 0.0000000000000000000, 0.0000000000000000000 ) ) ;
#211 = DIRECTION ( 'NONE',  ( 3.491481338843133355E-15, -1.224646799147353207E-16, 1.000000000000000000 ) ) ;
#212 = EDGE_LOOP ( 'NONE', ( #114 ) ) ;
#213 = PERSON_AND_ORGANIZATION_ROLE ( 'design_owner' ) ;
#214 = CIRCLE ( 'NONE', #243, 1.499999999999996891 ) ;
#215 = ORIENTED_EDGE ( 'NONE', *, *, #100, .T. ) ;
#216 = PERSON ( 'UNSPECIFIED', 'UNSPECIFIED', 'UNSPECIFIED', ('UNSPECIFIED'), ('UNSPECIFIED'), ('UNSPECIFIED') ) ;
#217 = EDGE_LOOP ( 'NONE', ( #30 ) ) ;
#218 = EDGE_CURVE ( 'NONE', #39, #39, #188, .T. ) ;
#219 = ORIENTED_EDGE ( 'NONE', *, *, #187, .F. ) ;
#220 = DIRECTION ( 'NONE',  ( 0.0000000000000000000, 1.000000000000000000, 0.0000000000000000000 ) ) ;
#221 = AXIS2_PLACEMENT_3D ( 'NONE', #140, #48, #138 ) ;
#222 = FACE_OUTER_BOUND ( 'NONE', #6, .T. ) ;
#223 = ADVANCED_FACE ( 'NONE', ( #111 ), #168, .F. ) ;
#224 = PLANE ( 'NONE',  #94 ) ;
#225 = LOCAL_TIME ( 8, 9, 58.00000000000000000, #180 ) ;
#226 = CARTESIAN_POINT ( 'NONE',  ( -1.710332578358783705E-32, 5.999039130647431458E-34, -4.898587196589413537E-18 ) ) ;
#227 = DIRECTION ( 'NONE',  ( 0.0000000000000000000, 1.000000000000000000, 0.0000000000000000000 ) ) ;
#228 = CALENDAR_DATE ( 2021, 24, 11 ) ;
#229 = AXIS2_PLACEMENT_3D ( 'NONE', #86, #194, #233 ) ;
#230 = APPROVAL_STATUS ( 'not_yet_approved' ) ;
#231 = EDGE_LOOP ( 'NONE', ( #28 ) ) ;
#232 = CC_DESIGN_PERSON_AND_ORGANIZATION_ASSIGNMENT ( #161, #35, ( #96 ) ) ;
#233 = DIRECTION ( 'NONE',  ( 4.275831445896958607E-31, 1.000000000000000000, 1.224646799147353207E-16 ) ) ;
#234 = CIRCLE ( 'NONE', #221, 1.500000000000003331 ) ;
#235 = CARTESIAN_POINT ( 'NONE',  ( 1.117274028429802674E-14, -3.918869757271530460E-16, 3.200000000000000178 ) ) ;
#236 = FACE_OUTER_BOUND ( 'NONE', #26, .T. ) ;
#237 = APPROVAL_PERSON_ORGANIZATION ( #90, #158, #121 ) ;
#238 = CARTESIAN_POINT ( 'NONE',  ( 6.714936297243076371E-15, 5.624099184981963292E-33, 1.923234193618231336 ) ) ;
#239 = PERSON_AND_ORGANIZATION ( #216, #163 ) ;
#240 = APPROVAL_DATE_TIME ( #37, #158 ) ;
#241 = CC_DESIGN_DATE_AND_TIME_ASSIGNMENT ( #201, #106, ( #127 ) ) ;
#242 = APPROVAL_STATUS ( 'not_yet_approved' ) ;
#243 = AXIS2_PLACEMENT_3D ( 'NONE', #192, #82, #159 ) ;
ENDSEC;
END-ISO-10303-21;
