ISO-10303-21;
HEADER;
FILE_DESCRIPTION (( 'STEP AP203' ),
    '1' );
FILE_NAME ('961238.step',
    '2021-11-24T07:09:57',
    ( '' ),
    ( '' ),
    'SwSTEP 2.0',
    'SolidWorks 2019',
    '' );
FILE_SCHEMA (( 'CONFIG_CONTROL_DESIGN' ));
ENDSEC;

DATA;
#1 = SECURITY_CLASSIFICATION ( '', '', #218 ) ;
#2 = DIRECTION ( 'NONE',  ( 4.275831445896959482E-31, 1.000000000000000000, 1.224646799147353207E-16 ) ) ;
#3 = CIRCLE ( 'NONE', #58, 1.499999999999996891 ) ;
#4 = DIRECTION ( 'NONE',  ( -3.491481338843133355E-15, 1.224646799147353207E-16, -1.000000000000000000 ) ) ;
#5 = EDGE_CURVE ( 'NONE', #59, #59, #119, .T. ) ;
#6 = DIRECTION ( 'NONE',  ( 3.491481338843133355E-15, -1.224646799147353207E-16, 1.000000000000000000 ) ) ;
#7 = APPROVAL ( #121, 'UNSPECIFIED' ) ;
#8 = CARTESIAN_POINT ( 'NONE',  ( 2.298071130742110643E-14, -8.060548464534433501E-16, 6.581937314617161583 ) ) ;
#9 = DIRECTION ( 'NONE',  ( -3.491481338843133355E-15, 1.224646799147353207E-16, -1.000000000000000000 ) ) ;
#10 = CARTESIAN_POINT ( 'NONE',  ( -4.275831445896958716E-32, 1.499759782661857779E-33, -1.224646799147353269E-17 ) ) ;
#11 = PERSON ( 'UNSPECIFIED', 'UNSPECIFIED', 'UNSPECIFIED', ('UNSPECIFIED'), ('UNSPECIFIED'), ('UNSPECIFIED') ) ;
#12 = DATE_AND_TIME ( #64, #129 ) ;
#13 = EDGE_LOOP ( 'NONE', ( #201 ) ) ;
#14 = PERSON_AND_ORGANIZATION ( #11, #74 ) ;
#15 = ORIENTED_EDGE ( 'NONE', *, *, #160, .T. ) ;
#16 = ORIENTED_EDGE ( 'NONE', *, *, #157, .T. ) ;
#17 = DATE_TIME_ROLE ( 'creation_date' ) ;
#18 = AXIS2_PLACEMENT_3D ( 'NONE', #97, #34, #206 ) ;
#19 = APPROVAL_PERSON_ORGANIZATION ( #14, #51, #138 ) ;
#20 = AXIS2_PLACEMENT_3D ( 'NONE', #211, #39, #210 ) ;
#21 = AXIS2_PLACEMENT_3D ( 'NONE', #169, #4, #40 ) ;
#22 = FACE_OUTER_BOUND ( 'NONE', #103, .T. ) ;
#23 = DIRECTION ( 'NONE',  ( 0.0000000000000000000, 1.000000000000000000, 0.0000000000000000000 ) ) ;
#24 = VERTEX_POINT ( 'NONE', #108 ) ;
#25 = APPLICATION_CONTEXT ( 'configuration controlled 3d designs of mechanical parts and assemblies' ) ;
#26 = FACE_OUTER_BOUND ( 'NONE', #13, .T. ) ;
#27 = CARTESIAN_POINT ( 'NONE',  ( -3.206873584422719174E-32, 0.02499999999999999792, -9.184850993605148746E-18 ) ) ;
#28 = APPROVAL_PERSON_ORGANIZATION ( #221, #113, #175 ) ;
#29 = EDGE_LOOP ( 'NONE', ( #67 ) ) ;
#30 = CALENDAR_DATE ( 2021, 24, 11 ) ;
#31 = ADVANCED_FACE ( 'NONE', ( #104, #224 ), #123, .T. ) ;
#32 = ORIENTED_EDGE ( 'NONE', *, *, #122, .T. ) ;
#33 = TOROIDAL_SURFACE ( 'NONE', #21, 8.750000000000000000, 8.000000000000000000 ) ;
#34 = DIRECTION ( 'NONE',  ( -3.491481338843133355E-15, 1.224646799147353207E-16, -1.000000000000000000 ) ) ;
#35 = EDGE_CURVE ( 'NONE', #137, #137, #220, .T. ) ;
#36 = PRODUCT_DEFINITION_SHAPE ( 'NONE', 'NONE',  #102 ) ;
#37 = VERTEX_POINT ( 'NONE', #107 ) ;
#38 = FACE_BOUND ( 'NONE', #158, .T. ) ;
#39 = DIRECTION ( 'NONE',  ( 3.491481338843133355E-15, -1.224646799147353207E-16, 1.000000000000000000 ) ) ;
#40 = DIRECTION ( 'NONE',  ( 4.355100981429076768E-31, 1.000000000000000000, 1.224646799147353207E-16 ) ) ;
#41 = CARTESIAN_POINT ( 'NONE',  ( 0.0000000000000000000, 0.0000000000000000000, 0.0000000000000000000 ) ) ;
#42 = APPROVAL_DATE_TIME ( #66, #51 ) ;
#43 = PERSON_AND_ORGANIZATION ( #11, #74 ) ;
#44 = SHAPE_DEFINITION_REPRESENTATION ( #36, #184 ) ;
#45 = CARTESIAN_POINT ( 'NONE',  ( 0.0000000000000000000, 0.0000000000000000000, 0.0000000000000000000 ) ) ;
#46 = PRODUCT ( '961238', '961238', '', ( #82 ) ) ;
#47 = AXIS2_PLACEMENT_3D ( 'NONE', #131, #77, #153 ) ;
#48 = CC_DESIGN_DATE_AND_TIME_ASSIGNMENT ( #139, #17, ( #102 ) ) ;
#49 = LOCAL_TIME ( 8, 9, 57.00000000000000000, #180 ) ;
#50 = CLOSED_SHELL ( 'NONE', ( #90, #242, #93 ) ) ;
#51 = APPROVAL ( #222, 'UNSPECIFIED' ) ;
#52 = AXIS2_PLACEMENT_3D ( 'NONE', #73, #88, #148 ) ;
#53 = FACE_BOUND ( 'NONE', #179, .T. ) ;
#54 = DIRECTION ( 'NONE',  ( 0.0000000000000000000, 1.000000000000000000, 0.0000000000000000000 ) ) ;
#55 = FACE_OUTER_BOUND ( 'NONE', #219, .T. ) ;
#56 = LOCAL_TIME ( 8, 9, 57.00000000000000000, #81 ) ;
#57 = CARTESIAN_POINT ( 'NONE',  ( 1.326762908760390423E-13, -4.653657836759941941E-15, 38.00000000000000000 ) ) ;
#58 = AXIS2_PLACEMENT_3D ( 'NONE', #8, #193, #54 ) ;
#59 = VERTEX_POINT ( 'NONE', #207 ) ;
#60 = PERSON_AND_ORGANIZATION_ROLE ( 'classification_officer' ) ;
#61 =( NAMED_UNIT ( * ) SI_UNIT ( $, .STERADIAN. ) SOLID_ANGLE_UNIT ( ) );
#62 = LOCAL_TIME ( 8, 9, 57.00000000000000000, #98 ) ;
#63 = EDGE_LOOP ( 'NONE', ( #15 ) ) ;
#64 = CALENDAR_DATE ( 2021, 24, 11 ) ;
#65 = ORIENTED_EDGE ( 'NONE', *, *, #5, .T. ) ;
#66 = DATE_AND_TIME ( #236, #62 ) ;
#67 = ORIENTED_EDGE ( 'NONE', *, *, #160, .F. ) ;
#68 = DIRECTION ( 'NONE',  ( 4.275831445896958607E-31, 1.000000000000000000, 1.224646799147353207E-16 ) ) ;
#69 = CC_DESIGN_PERSON_AND_ORGANIZATION_ASSIGNMENT ( #181, #239, ( #102 ) ) ;
#70 = PRODUCT_DEFINITION_FORMATION_WITH_SPECIFIED_SOURCE ( 'ANY', '', #46, .NOT_KNOWN. ) ;
#71 = CC_DESIGN_PERSON_AND_ORGANIZATION_ASSIGNMENT ( #43, #198, ( #70 ) ) ;
#72 = DIRECTION ( 'NONE',  ( -3.491481338843133355E-15, 1.224646799147353207E-16, -1.000000000000000000 ) ) ;
#73 = CARTESIAN_POINT ( 'NONE',  ( -4.275831445896958716E-32, 1.499759782661857779E-33, -1.224646799147353269E-17 ) ) ;
#74 = ORGANIZATION ( 'UNSPECIFIED', 'UNSPECIFIED', '' ) ;
#75 = DIRECTION ( 'NONE',  ( -4.275831445896958607E-31, -1.000000000000000000, -1.224646799147353207E-16 ) ) ;
#76 = CARTESIAN_POINT ( 'NONE',  ( 6.954755450716044568E-15, -2.439399834911926627E-16, 1.991921129104597066 ) ) ;
#77 = DIRECTION ( 'NONE',  ( -3.491481338843133355E-15, 1.224646799147353207E-16, -1.000000000000000000 ) ) ;
#78 = PERSON_AND_ORGANIZATION ( #11, #74 ) ;
#79 = CALENDAR_DATE ( 2021, 24, 11 ) ;
#80 = EDGE_LOOP ( 'NONE', ( #65 ) ) ;
#81 = COORDINATED_UNIVERSAL_TIME_OFFSET ( 1, 0, .AHEAD. ) ;
#82 = MECHANICAL_CONTEXT ( 'NONE', #167, 'mechanical' ) ;
#83 = COORDINATED_UNIVERSAL_TIME_OFFSET ( 1, 0, .AHEAD. ) ;
#84 = FACE_OUTER_BOUND ( 'NONE', #120, .T. ) ;
#85 = ADVANCED_FACE ( 'NONE', ( #84, #161 ), #86, .T. ) ;
#86 = CYLINDRICAL_SURFACE ( 'NONE', #176, 0.7500000000000005551 ) ;
#87 = CIRCLE ( 'NONE', #47, 1.200000000000003286 ) ;
#88 = DIRECTION ( 'NONE',  ( 3.491481338843133355E-15, -1.224646799147353207E-16, 1.000000000000000000 ) ) ;
#89 = FACE_OUTER_BOUND ( 'NONE', #235, .T. ) ;
#90 = ADVANCED_FACE ( 'NONE', ( #146 ), #183, .F. ) ;
#91 = DIRECTION ( 'NONE',  ( 4.275831445896958607E-31, 1.000000000000000000, 1.224646799147353207E-16 ) ) ;
#92 = DIRECTION ( 'NONE',  ( -3.491481338843133355E-15, 1.224646799147353207E-16, -1.000000000000000000 ) ) ;
#93 = ADVANCED_FACE ( 'NONE', ( #89 ), #228, .T. ) ;
#94 = FACE_OUTER_BOUND ( 'NONE', #63, .T. ) ;
#95 = APPROVAL_STATUS ( 'not_yet_approved' ) ;
#96 =( GEOMETRIC_REPRESENTATION_CONTEXT ( 3 ) GLOBAL_UNCERTAINTY_ASSIGNED_CONTEXT ( ( #128 ) ) GLOBAL_UNIT_ASSIGNED_CONTEXT ( ( #115, #217, #61 ) ) REPRESENTATION_CONTEXT ( 'NONE', 'WORKASPACE' ) );
#97 = CARTESIAN_POINT ( 'NONE',  ( 6.954755450716044568E-15, -2.439399834911926627E-16, 1.991921129104597066 ) ) ;
#98 = COORDINATED_UNIVERSAL_TIME_OFFSET ( 1, 0, .AHEAD. ) ;
#99 = DATE_AND_TIME ( #30, #56 ) ;
#100 = ORIENTED_EDGE ( 'NONE', *, *, #35, .F. ) ;
#101 = DATE_TIME_ROLE ( 'classification_date' ) ;
#102 = PRODUCT_DEFINITION ( 'UNKNOWN', '', #70, #163 ) ;
#103 = EDGE_LOOP ( 'NONE', ( #215 ) ) ;
#104 = FACE_OUTER_BOUND ( 'NONE', #29, .T. ) ;
#105 = CC_DESIGN_APPROVAL ( #113, ( #70 ) ) ;
#106 = DIRECTION ( 'NONE',  ( 4.275831445896957731E-31, 1.000000000000000000, 1.224646799147353454E-16 ) ) ;
#107 = CARTESIAN_POINT ( 'NONE',  ( 1.316288464743861212E-13, 1.499999999999998668, 37.69999999999999574 ) ) ;
#108 = CARTESIAN_POINT ( 'NONE',  ( 1.117274028429802674E-14, 0.7500000000000006661, 3.200000000000000178 ) ) ;
#109 = EDGE_CURVE ( 'NONE', #110, #110, #194, .T. ) ;
#110 = VERTEX_POINT ( 'NONE', #134 ) ;
#111 = MANIFOLD_SOLID_BREP ( 'Corps-Déplacer/Copier1[2]', #50 ) ;
#112 = CARTESIAN_POINT ( 'NONE',  ( 1.117274028429802674E-14, -3.918869757271530460E-16, 3.200000000000000178 ) ) ;
#113 = APPROVAL ( #95, 'UNSPECIFIED' ) ;
#114 = FACE_OUTER_BOUND ( 'NONE', #80, .T. ) ;
#115 =( LENGTH_UNIT ( ) NAMED_UNIT ( * ) SI_UNIT ( .MILLI., .METRE. ) );
#116 = CALENDAR_DATE ( 2021, 24, 11 ) ;
#117 = EDGE_LOOP ( 'NONE', ( #143 ) ) ;
#118 = MANIFOLD_SOLID_BREP ( 'Corps-Déplacer/Copier1[1]', #225 ) ;
#119 = CIRCLE ( 'NONE', #18, 0.7500000000000000000 ) ;
#120 = EDGE_LOOP ( 'NONE', ( #16 ) ) ;
#121 = APPROVAL_STATUS ( 'not_yet_approved' ) ;
#122 = EDGE_CURVE ( 'NONE', #37, #37, #233, .T. ) ;
#123 = CYLINDRICAL_SURFACE ( 'NONE', #150, 1.500000000000000000 ) ;
#124 = CIRCLE ( 'NONE', #166, 0.7500000000000011102 ) ;
#125 = CARTESIAN_POINT ( 'NONE',  ( 0.0000000000000000000, 0.0000000000000000000, 0.0000000000000000000 ) ) ;
#126 = PRODUCT_RELATED_PRODUCT_CATEGORY ( 'detail', '', ( #46 ) ) ;
#127 = LOCAL_TIME ( 8, 9, 57.00000000000000000, #177 ) ;
#128 = UNCERTAINTY_MEASURE_WITH_UNIT (LENGTH_MEASURE( 1.000000000000000082E-05 ), #115, 'distance_accuracy_value', 'NONE');
#129 = LOCAL_TIME ( 8, 9, 57.00000000000000000, #83 ) ;
#130 = ADVANCED_FACE ( 'NONE', ( #22 ), #213, .F. ) ;
#131 = CARTESIAN_POINT ( 'NONE',  ( 1.326762908760390423E-13, -4.653657836759941941E-15, 38.00000000000000000 ) ) ;
#132 = AXIS2_PLACEMENT_3D ( 'NONE', #10, #185, #106 ) ;
#133 = DIRECTION ( 'NONE',  ( 0.0000000000000000000, 1.000000000000000000, 0.0000000000000000000 ) ) ;
#134 = CARTESIAN_POINT ( 'NONE',  ( 6.954755450716044568E-15, 0.7499999999999997780, 1.991921129104597066 ) ) ;
#135 = DIRECTION ( 'NONE',  ( -3.491481338843133355E-15, 1.224646799147353207E-16, -1.000000000000000000 ) ) ;
#136 = AXIS2_PLACEMENT_3D ( 'NONE', #172, #189, #91 ) ;
#137 = VERTEX_POINT ( 'NONE', #27 ) ;
#138 = APPROVAL_ROLE ( '' ) ;
#139 = DATE_AND_TIME ( #79, #49 ) ;
#140 = EDGE_CURVE ( 'NONE', #191, #191, #87, .T. ) ;
#141 = ORIENTED_EDGE ( 'NONE', *, *, #140, .T. ) ;
#142 = PERSON_AND_ORGANIZATION ( #11, #74 ) ;
#143 = ORIENTED_EDGE ( 'NONE', *, *, #109, .T. ) ;
#144 = APPROVAL_DATE_TIME ( #12, #113 ) ;
#145 = CC_DESIGN_DATE_AND_TIME_ASSIGNMENT ( #99, #101, ( #1 ) ) ;
#146 = FACE_OUTER_BOUND ( 'NONE', #241, .T. ) ;
#147 = ADVANCED_FACE ( 'NONE', ( #94, #55 ), #33, .F. ) ;
#148 = DIRECTION ( 'NONE',  ( -4.275831445896960358E-31, -1.000000000000000000, -1.224646799147352714E-16 ) ) ;
#149 = DIRECTION ( 'NONE',  ( 0.0000000000000000000, 1.000000000000000000, 0.0000000000000000000 ) ) ;
#150 = AXIS2_PLACEMENT_3D ( 'NONE', #45, #186, #2 ) ;
#151 = DIRECTION ( 'NONE',  ( -4.275831445896958607E-31, -1.000000000000000000, -1.224646799147353207E-16 ) ) ;
#152 = CARTESIAN_POINT ( 'NONE',  ( 1.316288464743861212E-13, -4.616918432785521081E-15, 37.69999999999999574 ) ) ;
#153 = DIRECTION ( 'NONE',  ( 0.0000000000000000000, 1.000000000000000000, 0.0000000000000000000 ) ) ;
#154 = PERSON_AND_ORGANIZATION_ROLE ( 'design_supplier' ) ;
#155 = AXIS2_PLACEMENT_3D ( 'NONE', #152, #135, #133 ) ;
#156 = PERSON_AND_ORGANIZATION ( #11, #74 ) ;
#157 = EDGE_CURVE ( 'NONE', #24, #24, #124, .T. ) ;
#158 = EDGE_LOOP ( 'NONE', ( #100 ) ) ;
#159 = DATE_AND_TIME ( #116, #127 ) ;
#160 = EDGE_CURVE ( 'NONE', #168, #168, #3, .T. ) ;
#161 = FACE_OUTER_BOUND ( 'NONE', #197, .T. ) ;
#162 = AXIS2_PLACEMENT_3D ( 'NONE', #76, #92, #23 ) ;
#163 = DESIGN_CONTEXT ( 'detailed design', #25, 'design' ) ;
#164 = CC_DESIGN_APPROVAL ( #7, ( #102 ) ) ;
#165 = CONICAL_SURFACE ( 'NONE', #231, 1.200000000000003286, 0.7853981633974453924 ) ;
#166 = AXIS2_PLACEMENT_3D ( 'NONE', #112, #9, #226 ) ;
#167 = APPLICATION_CONTEXT ( 'configuration controlled 3d designs of mechanical parts and assemblies' ) ;
#168 = VERTEX_POINT ( 'NONE', #171 ) ;
#169 = CARTESIAN_POINT ( 'NONE',  ( 1.117274028429802674E-14, 0.0000000000000000000, 3.200000000000000178 ) ) ;
#170 = DIRECTION ( 'NONE',  ( 0.0000000000000000000, 0.0000000000000000000, 1.000000000000000000 ) ) ;
#171 = CARTESIAN_POINT ( 'NONE',  ( 2.298071130742110643E-14, 1.499999999999996225, 6.581937314617161583 ) ) ;
#172 = CARTESIAN_POINT ( 'NONE',  ( 1.326762908760390423E-13, 8.998558695971103225E-33, 38.00000000000000000 ) ) ;
#173 = CARTESIAN_POINT ( 'NONE',  ( 1.326762908760390423E-13, 1.199999999999998845, 38.00000000000000000 ) ) ;
#174 = CC_DESIGN_APPROVAL ( #51, ( #1 ) ) ;
#175 = APPROVAL_ROLE ( '' ) ;
#176 = AXIS2_PLACEMENT_3D ( 'NONE', #125, #72, #68 ) ;
#177 = COORDINATED_UNIVERSAL_TIME_OFFSET ( 1, 0, .AHEAD. ) ;
#178 = ORIENTED_EDGE ( 'NONE', *, *, #35, .T. ) ;
#179 = EDGE_LOOP ( 'NONE', ( #141 ) ) ;
#180 = COORDINATED_UNIVERSAL_TIME_OFFSET ( 1, 0, .AHEAD. ) ;
#181 = PERSON_AND_ORGANIZATION ( #11, #74 ) ;
#182 = ORIENTED_EDGE ( 'NONE', *, *, #5, .F. ) ;
#183 = PLANE ( 'NONE',  #243 ) ;
#184 = ADVANCED_BREP_SHAPE_REPRESENTATION ( '961238', ( #118, #111, #216 ), #96 ) ;
#185 = DIRECTION ( 'NONE',  ( -3.491481338843133355E-15, 1.224646799147353207E-16, -1.000000000000000000 ) ) ;
#186 = DIRECTION ( 'NONE',  ( -3.491481338843133355E-15, 1.224646799147353207E-16, -1.000000000000000000 ) ) ;
#187 = CC_DESIGN_PERSON_AND_ORGANIZATION_ASSIGNMENT ( #156, #60, ( #1 ) ) ;
#188 = CARTESIAN_POINT ( 'NONE',  ( -2.137915722948479358E-32, 7.498798913309288894E-34, -6.123233995736766344E-18 ) ) ;
#189 = DIRECTION ( 'NONE',  ( -3.491481338843133355E-15, 1.224646799147353207E-16, -1.000000000000000000 ) ) ;
#190 = APPROVAL_PERSON_ORGANIZATION ( #142, #7, #240 ) ;
#191 = VERTEX_POINT ( 'NONE', #173 ) ;
#192 = ADVANCED_FACE ( 'NONE', ( #114 ), #232, .F. ) ;
#193 = DIRECTION ( 'NONE',  ( -3.491481338843133355E-15, 1.224646799147353207E-16, -1.000000000000000000 ) ) ;
#194 = CIRCLE ( 'NONE', #162, 0.7500000000000000000 ) ;
#195 = FACE_OUTER_BOUND ( 'NONE', #117, .T. ) ;
#196 = CC_DESIGN_PERSON_AND_ORGANIZATION_ASSIGNMENT ( #204, #237, ( #46 ) ) ;
#197 = EDGE_LOOP ( 'NONE', ( #182 ) ) ;
#198 = PERSON_AND_ORGANIZATION_ROLE ( 'creator' ) ;
#199 = EDGE_LOOP ( 'NONE', ( #32 ) ) ;
#200 = CONICAL_SURFACE ( 'NONE', #52, 0.02499999999999999792, 0.3490658503988666173 ) ;
#201 = ORIENTED_EDGE ( 'NONE', *, *, #122, .F. ) ;
#202 = DIRECTION ( 'NONE',  ( 1.000000000000000000, 0.0000000000000000000, 0.0000000000000000000 ) ) ;
#203 = ORIENTED_EDGE ( 'NONE', *, *, #109, .F. ) ;
#204 = PERSON_AND_ORGANIZATION ( #11, #74 ) ;
#205 = AXIS2_PLACEMENT_3D ( 'NONE', #229, #6, #75 ) ;
#206 = DIRECTION ( 'NONE',  ( 0.0000000000000000000, 1.000000000000000000, 0.0000000000000000000 ) ) ;
#207 = CARTESIAN_POINT ( 'NONE',  ( 6.954755450716044568E-15, 0.7499999999999997780, 1.991921129104597066 ) ) ;
#208 = DIRECTION ( 'NONE',  ( -3.491481338843133355E-15, 1.224646799147353207E-16, -1.000000000000000000 ) ) ;
#209 = CC_DESIGN_SECURITY_CLASSIFICATION ( #1, ( #70 ) ) ;
#210 = DIRECTION ( 'NONE',  ( -4.275831445896958607E-31, -1.000000000000000000, -1.224646799147353207E-16 ) ) ;
#211 = CARTESIAN_POINT ( 'NONE',  ( 6.954755450716046145E-15, 1.151810781650657851E-15, 1.991921129104597510 ) ) ;
#212 = ADVANCED_FACE ( 'NONE', ( #26, #53 ), #165, .T. ) ;
#213 = PLANE ( 'NONE',  #136 ) ;
#214 = APPROVAL_DATE_TIME ( #159, #7 ) ;
#215 = ORIENTED_EDGE ( 'NONE', *, *, #140, .F. ) ;
#216 = AXIS2_PLACEMENT_3D ( 'NONE', #41, #170, #202 ) ;
#217 =( NAMED_UNIT ( * ) PLANE_ANGLE_UNIT ( ) SI_UNIT ( $, .RADIAN. ) );
#218 = SECURITY_CLASSIFICATION_LEVEL ( 'unclassified' ) ;
#219 = EDGE_LOOP ( 'NONE', ( #238 ) ) ;
#220 = CIRCLE ( 'NONE', #132, 0.02499999999999999792 ) ;
#221 = PERSON_AND_ORGANIZATION ( #11, #74 ) ;
#222 = APPROVAL_STATUS ( 'not_yet_approved' ) ;
#223 = APPLICATION_PROTOCOL_DEFINITION ( 'international standard', 'config_control_design', 1994, #167 ) ;
#224 = FACE_OUTER_BOUND ( 'NONE', #199, .T. ) ;
#225 = CLOSED_SHELL ( 'NONE', ( #192, #85, #147, #31, #212, #130 ) ) ;
#226 = DIRECTION ( 'NONE',  ( 0.0000000000000000000, 1.000000000000000000, 0.0000000000000000000 ) ) ;
#227 = DIRECTION ( 'NONE',  ( 3.491481338843133355E-15, -1.224646799147353207E-16, 1.000000000000000000 ) ) ;
#228 = PLANE ( 'NONE',  #20 ) ;
#229 = CARTESIAN_POINT ( 'NONE',  ( 6.954755450716046145E-15, 1.151810781650657851E-15, 1.991921129104597510 ) ) ;
#230 = CC_DESIGN_PERSON_AND_ORGANIZATION_ASSIGNMENT ( #78, #154, ( #70 ) ) ;
#231 = AXIS2_PLACEMENT_3D ( 'NONE', #57, #208, #149 ) ;
#232 = PLANE ( 'NONE',  #205 ) ;
#233 = CIRCLE ( 'NONE', #155, 1.500000000000003331 ) ;
#234 = APPLICATION_PROTOCOL_DEFINITION ( 'international standard', 'config_control_design', 1994, #25 ) ;
#235 = EDGE_LOOP ( 'NONE', ( #203 ) ) ;
#236 = CALENDAR_DATE ( 2021, 24, 11 ) ;
#237 = PERSON_AND_ORGANIZATION_ROLE ( 'design_owner' ) ;
#238 = ORIENTED_EDGE ( 'NONE', *, *, #157, .F. ) ;
#239 = PERSON_AND_ORGANIZATION_ROLE ( 'creator' ) ;
#240 = APPROVAL_ROLE ( '' ) ;
#241 = EDGE_LOOP ( 'NONE', ( #178 ) ) ;
#242 = ADVANCED_FACE ( 'NONE', ( #195, #38 ), #200, .T. ) ;
#243 = AXIS2_PLACEMENT_3D ( 'NONE', #188, #227, #151 ) ;
ENDSEC;
END-ISO-10303-21;
