ISO-10303-21;
HEADER;
FILE_DESCRIPTION (( 'STEP AP203' ),
    '1' );
FILE_NAME ('961228.step',
    '2021-11-24T06:51:39',
    ( '' ),
    ( '' ),
    'SwSTEP 2.0',
    'SolidWorks 2019',
    '' );
FILE_SCHEMA (( 'CONFIG_CONTROL_DESIGN' ));
ENDSEC;

DATA;
#1 = APPROVAL_ROLE ( '' ) ;
#2 = APPROVAL_STATUS ( 'not_yet_approved' ) ;
#3 = CONICAL_SURFACE ( 'NONE', #93, 1.200000000000003286, 0.7853981633974453924 ) ;
#4 = CIRCLE ( 'NONE', #37, 1.499999999999996891 ) ;
#5 = APPROVAL_DATE_TIME ( #16, #19 ) ;
#6 = EDGE_LOOP ( 'NONE', ( #188 ) ) ;
#7 = ADVANCED_FACE ( 'NONE', ( #153, #60 ), #231, .T. ) ;
#8 = PRODUCT_DEFINITION_FORMATION_WITH_SPECIFIED_SOURCE ( 'ANY', '', #54, .NOT_KNOWN. ) ;
#9 = LOCAL_TIME ( 7, 51, 39.00000000000000000, #73 ) ;
#10 = DIRECTION ( 'NONE',  ( -3.491481338843133355E-15, 1.224646799147353207E-16, -1.000000000000000000 ) ) ;
#11 = DIRECTION ( 'NONE',  ( 3.491481338843133355E-15, -1.224646799147353207E-16, 1.000000000000000000 ) ) ;
#12 = CARTESIAN_POINT ( 'NONE',  ( 1.326762908760390423E-13, -4.653657836759941941E-15, 38.00000000000000000 ) ) ;
#13 = AXIS2_PLACEMENT_3D ( 'NONE', #141, #212, #115 ) ;
#14 = LOCAL_TIME ( 7, 51, 39.00000000000000000, #204 ) ;
#15 = DIRECTION ( 'NONE',  ( -3.491481338843133355E-15, 1.224646799147353207E-16, -1.000000000000000000 ) ) ;
#16 = DATE_AND_TIME ( #216, #9 ) ;
#17 = AXIS2_PLACEMENT_3D ( 'NONE', #149, #36, #91 ) ;
#18 = COORDINATED_UNIVERSAL_TIME_OFFSET ( 1, 0, .AHEAD. ) ;
#19 = APPROVAL ( #21, 'UNSPECIFIED' ) ;
#20 =( NAMED_UNIT ( * ) SI_UNIT ( $, .STERADIAN. ) SOLID_ANGLE_UNIT ( ) );
#21 = APPROVAL_STATUS ( 'not_yet_approved' ) ;
#22 = LOCAL_TIME ( 7, 51, 39.00000000000000000, #92 ) ;
#23 = PERSON_AND_ORGANIZATION_ROLE ( 'classification_officer' ) ;
#24 = EDGE_LOOP ( 'NONE', ( #173 ) ) ;
#25 = AXIS2_PLACEMENT_3D ( 'NONE', #47, #123, #29 ) ;
#26 = EDGE_LOOP ( 'NONE', ( #152 ) ) ;
#27 = EDGE_CURVE ( 'NONE', #199, #199, #4, .T. ) ;
#28 = ORIENTED_EDGE ( 'NONE', *, *, #27, .T. ) ;
#29 = DIRECTION ( 'NONE',  ( -4.275831445896958607E-31, -1.000000000000000000, -1.224646799147353207E-16 ) ) ;
#30 = EDGE_CURVE ( 'NONE', #164, #164, #111, .T. ) ;
#31 = FACE_OUTER_BOUND ( 'NONE', #226, .T. ) ;
#32 = DIRECTION ( 'NONE',  ( 0.0000000000000000000, 1.000000000000000000, 0.0000000000000000000 ) ) ;
#33 = PLANE ( 'NONE',  #25 ) ;
#34 = CARTESIAN_POINT ( 'NONE',  ( 0.0000000000000000000, 0.0000000000000000000, 0.0000000000000000000 ) ) ;
#35 = DATE_TIME_ROLE ( 'creation_date' ) ;
#36 = DIRECTION ( 'NONE',  ( -3.491481338843133355E-15, 1.224646799147353207E-16, -1.000000000000000000 ) ) ;
#37 = AXIS2_PLACEMENT_3D ( 'NONE', #121, #160, #215 ) ;
#38 = PERSON_AND_ORGANIZATION ( #132, #229 ) ;
#39 = PERSON_AND_ORGANIZATION_ROLE ( 'design_owner' ) ;
#40 = DATE_AND_TIME ( #169, #142 ) ;
#41 = EDGE_LOOP ( 'NONE', ( #186 ) ) ;
#42 = PRODUCT_DEFINITION ( 'UNKNOWN', '', #8, #232 ) ;
#43 = DIRECTION ( 'NONE',  ( -4.275831445896958607E-31, -1.000000000000000000, -1.224646799147353207E-16 ) ) ;
#44 = CYLINDRICAL_SURFACE ( 'NONE', #90, 1.500000000000000000 ) ;
#45 = ADVANCED_FACE ( 'NONE', ( #87 ), #144, .F. ) ;
#46 = FACE_OUTER_BOUND ( 'NONE', #192, .T. ) ;
#47 = CARTESIAN_POINT ( 'NONE',  ( 6.235297990297140767E-15, 5.624099184981963292E-33, 1.785860322645500098 ) ) ;
#48 = CARTESIAN_POINT ( 'NONE',  ( -3.206873584422718626E-32, 1.124819836996393035E-33, -9.184850993605147205E-18 ) ) ;
#49 = ADVANCED_FACE ( 'NONE', ( #46 ), #33, .T. ) ;
#50 = CONICAL_SURFACE ( 'NONE', #240, 0.1000000000000000056, 0.3490658503988666728 ) ;
#51 = CC_DESIGN_PERSON_AND_ORGANIZATION_ASSIGNMENT ( #133, #23, ( #230 ) ) ;
#52 = CALENDAR_DATE ( 2021, 24, 11 ) ;
#53 = CIRCLE ( 'NONE', #159, 0.7500000000000011102 ) ;
#54 = PRODUCT ( '961228', '961228', '', ( #202 ) ) ;
#55 = CC_DESIGN_PERSON_AND_ORGANIZATION_ASSIGNMENT ( #38, #69, ( #42 ) ) ;
#56 = APPROVAL_ROLE ( '' ) ;
#57 = AXIS2_PLACEMENT_3D ( 'NONE', #65, #233, #105 ) ;
#58 = EDGE_LOOP ( 'NONE', ( #191 ) ) ;
#59 = ADVANCED_FACE ( 'NONE', ( #84 ), #61, .F. ) ;
#60 = FACE_OUTER_BOUND ( 'NONE', #190, .T. ) ;
#61 = PLANE ( 'NONE',  #57 ) ;
#62 = PLANE ( 'NONE',  #13 ) ;
#63 = DIRECTION ( 'NONE',  ( 4.275831445896958607E-31, 1.000000000000000000, 1.224646799147353207E-16 ) ) ;
#64 = AXIS2_PLACEMENT_3D ( 'NONE', #214, #143, #145 ) ;
#65 = CARTESIAN_POINT ( 'NONE',  ( -1.603436792211359313E-32, 5.624099184981965174E-34, -4.592425496802573602E-18 ) ) ;
#66 = DIRECTION ( 'NONE',  ( -4.275831445896958607E-31, -1.000000000000000000, -1.224646799147353207E-16 ) ) ;
#67 = AXIS2_PLACEMENT_3D ( 'NONE', #236, #15, #79 ) ;
#68 = CARTESIAN_POINT ( 'NONE',  ( 1.326762908760390423E-13, 1.199999999999998845, 38.00000000000000000 ) ) ;
#69 = PERSON_AND_ORGANIZATION_ROLE ( 'creator' ) ;
#70 = VERTEX_POINT ( 'NONE', #107 ) ;
#71 = AXIS2_PLACEMENT_3D ( 'NONE', #175, #140, #125 ) ;
#72 = EDGE_CURVE ( 'NONE', #70, #70, #116, .T. ) ;
#73 = COORDINATED_UNIVERSAL_TIME_OFFSET ( 1, 0, .AHEAD. ) ;
#74 = AXIS2_PLACEMENT_3D ( 'NONE', #129, #165, #220 ) ;
#75 = EDGE_LOOP ( 'NONE', ( #28 ) ) ;
#76 = APPROVAL_DATE_TIME ( #151, #234 ) ;
#77 = ORIENTED_EDGE ( 'NONE', *, *, #114, .F. ) ;
#78 = CC_DESIGN_SECURITY_CLASSIFICATION ( #230, ( #8 ) ) ;
#79 = DIRECTION ( 'NONE',  ( 4.355100981429076768E-31, 1.000000000000000000, 1.224646799147353207E-16 ) ) ;
#80 = UNCERTAINTY_MEASURE_WITH_UNIT (LENGTH_MEASURE( 1.000000000000000082E-05 ), #201, 'distance_accuracy_value', 'NONE');
#81 = DIRECTION ( 'NONE',  ( 0.0000000000000000000, 1.000000000000000000, 0.0000000000000000000 ) ) ;
#82 = DIRECTION ( 'NONE',  ( 4.275831445896958607E-31, 1.000000000000000000, 1.224646799147353207E-16 ) ) ;
#83 = ADVANCED_BREP_SHAPE_REPRESENTATION ( '961228', ( #109, #182, #74 ), #221 ) ;
#84 = FACE_OUTER_BOUND ( 'NONE', #26, .T. ) ;
#85 = AXIS2_PLACEMENT_3D ( 'NONE', #156, #237, #82 ) ;
#86 = CC_DESIGN_APPROVAL ( #19, ( #8 ) ) ;
#87 = FACE_OUTER_BOUND ( 'NONE', #58, .T. ) ;
#88 = APPLICATION_PROTOCOL_DEFINITION ( 'international standard', 'config_control_design', 1994, #112 ) ;
#89 = EDGE_CURVE ( 'NONE', #167, #167, #131, .T. ) ;
#90 = AXIS2_PLACEMENT_3D ( 'NONE', #34, #122, #124 ) ;
#91 = DIRECTION ( 'NONE',  ( 0.0000000000000000000, 1.000000000000000000, 0.0000000000000000000 ) ) ;
#92 = COORDINATED_UNIVERSAL_TIME_OFFSET ( 1, 0, .AHEAD. ) ;
#93 = AXIS2_PLACEMENT_3D ( 'NONE', #12, #10, #81 ) ;
#94 = SECURITY_CLASSIFICATION_LEVEL ( 'unclassified' ) ;
#95 = APPROVAL ( #108, 'UNSPECIFIED' ) ;
#96 = PERSON_AND_ORGANIZATION ( #132, #229 ) ;
#97 = ORIENTED_EDGE ( 'NONE', *, *, #101, .T. ) ;
#98 = AXIS2_PLACEMENT_3D ( 'NONE', #48, #102, #63 ) ;
#99 = EDGE_LOOP ( 'NONE', ( #77 ) ) ;
#100 = ORIENTED_EDGE ( 'NONE', *, *, #101, .F. ) ;
#101 = EDGE_CURVE ( 'NONE', #242, #242, #198, .T. ) ;
#102 = DIRECTION ( 'NONE',  ( -3.491481338843133355E-15, 1.224646799147353207E-16, -1.000000000000000000 ) ) ;
#103 = FACE_BOUND ( 'NONE', #136, .T. ) ;
#104 = FACE_OUTER_BOUND ( 'NONE', #209, .T. ) ;
#105 = DIRECTION ( 'NONE',  ( -4.275831445896958607E-31, -1.000000000000000000, -1.224646799147353207E-16 ) ) ;
#106 = FACE_BOUND ( 'NONE', #41, .T. ) ;
#107 = CARTESIAN_POINT ( 'NONE',  ( 1.068957861474239953E-32, 0.1000000000000000056, 3.061616997868384713E-18 ) ) ;
#108 = APPROVAL_STATUS ( 'not_yet_approved' ) ;
#109 = MANIFOLD_SOLID_BREP ( 'Corps-Déplacer/Copier1[1]', #217 ) ;
#110 = VERTEX_POINT ( 'NONE', #184 ) ;
#111 = CIRCLE ( 'NONE', #64, 1.500000000000003331 ) ;
#112 = APPLICATION_CONTEXT ( 'configuration controlled 3d designs of mechanical parts and assemblies' ) ;
#113 = CARTESIAN_POINT ( 'NONE',  ( 1.316288464743861212E-13, 1.499999999999998668, 37.69999999999999574 ) ) ;
#114 = EDGE_CURVE ( 'NONE', #110, #110, #53, .T. ) ;
#115 = DIRECTION ( 'NONE',  ( 4.275831445896958607E-31, 1.000000000000000000, 1.224646799147353207E-16 ) ) ;
#116 = CIRCLE ( 'NONE', #98, 0.1000000000000000056 ) ;
#117 = ADVANCED_FACE ( 'NONE', ( #177, #104 ), #44, .T. ) ;
#118 = ORIENTED_EDGE ( 'NONE', *, *, #178, .T. ) ;
#119 = SHAPE_DEFINITION_REPRESENTATION ( #200, #83 ) ;
#120 = LOCAL_TIME ( 7, 51, 39.00000000000000000, #18 ) ;
#121 = CARTESIAN_POINT ( 'NONE',  ( 2.298071130742110643E-14, -8.060548464534433501E-16, 6.581937314617161583 ) ) ;
#122 = DIRECTION ( 'NONE',  ( -3.491481338843133355E-15, 1.224646799147353207E-16, -1.000000000000000000 ) ) ;
#123 = DIRECTION ( 'NONE',  ( 3.491481338843133355E-15, -1.224646799147353207E-16, 1.000000000000000000 ) ) ;
#124 = DIRECTION ( 'NONE',  ( 4.275831445896959482E-31, 1.000000000000000000, 1.224646799147353207E-16 ) ) ;
#125 = DIRECTION ( 'NONE',  ( 0.0000000000000000000, 1.000000000000000000, 0.0000000000000000000 ) ) ;
#126 = CARTESIAN_POINT ( 'NONE',  ( 6.235297990297140767E-15, 0.7499999999999997780, 1.785860322645500098 ) ) ;
#127 = APPROVAL_PERSON_ORGANIZATION ( #219, #95, #243 ) ;
#128 = ADVANCED_FACE ( 'NONE', ( #193, #106 ), #50, .T. ) ;
#129 = CARTESIAN_POINT ( 'NONE',  ( 0.0000000000000000000, 0.0000000000000000000, 0.0000000000000000000 ) ) ;
#130 = DATE_AND_TIME ( #52, #22 ) ;
#131 = CIRCLE ( 'NONE', #71, 0.7500000000000000000 ) ;
#132 = PERSON ( 'UNSPECIFIED', 'UNSPECIFIED', 'UNSPECIFIED', ('UNSPECIFIED'), ('UNSPECIFIED'), ('UNSPECIFIED') ) ;
#133 = PERSON_AND_ORGANIZATION ( #132, #229 ) ;
#134 = CIRCLE ( 'NONE', #17, 0.7500000000000000000 ) ;
#135 = ADVANCED_FACE ( 'NONE', ( #179, #174 ), #168, .F. ) ;
#136 = EDGE_LOOP ( 'NONE', ( #97 ) ) ;
#137 = CALENDAR_DATE ( 2021, 24, 11 ) ;
#138 = AXIS2_PLACEMENT_3D ( 'NONE', #161, #211, #197 ) ;
#139 = ORIENTED_EDGE ( 'NONE', *, *, #178, .F. ) ;
#140 = DIRECTION ( 'NONE',  ( -3.491481338843133355E-15, 1.224646799147353207E-16, -1.000000000000000000 ) ) ;
#141 = CARTESIAN_POINT ( 'NONE',  ( 1.326762908760390423E-13, 8.998558695971103225E-33, 38.00000000000000000 ) ) ;
#142 = LOCAL_TIME ( 7, 51, 39.00000000000000000, #227 ) ;
#143 = DIRECTION ( 'NONE',  ( -3.491481338843133355E-15, 1.224646799147353207E-16, -1.000000000000000000 ) ) ;
#144 = PLANE ( 'NONE',  #203 ) ;
#145 = DIRECTION ( 'NONE',  ( 0.0000000000000000000, 1.000000000000000000, 0.0000000000000000000 ) ) ;
#146 = APPLICATION_PROTOCOL_DEFINITION ( 'international standard', 'config_control_design', 1994, #166 ) ;
#147 = APPROVAL_PERSON_ORGANIZATION ( #180, #19, #1 ) ;
#148 = CARTESIAN_POINT ( 'NONE',  ( 6.235297990297140767E-15, 0.7499999999999997780, 1.785860322645500098 ) ) ;
#149 = CARTESIAN_POINT ( 'NONE',  ( 6.235297990297140767E-15, -2.187048127852071188E-16, 1.785860322645500098 ) ) ;
#150 = CC_DESIGN_APPROVAL ( #95, ( #42 ) ) ;
#151 = DATE_AND_TIME ( #137, #14 ) ;
#152 = ORIENTED_EDGE ( 'NONE', *, *, #72, .T. ) ;
#153 = FACE_OUTER_BOUND ( 'NONE', #24, .T. ) ;
#154 = ADVANCED_FACE ( 'NONE', ( #31, #103 ), #3, .T. ) ;
#155 = ORIENTED_EDGE ( 'NONE', *, *, #30, .T. ) ;
#156 = CARTESIAN_POINT ( 'NONE',  ( 0.0000000000000000000, 0.0000000000000000000, 0.0000000000000000000 ) ) ;
#157 = FACE_OUTER_BOUND ( 'NONE', #228, .T. ) ;
#158 = CARTESIAN_POINT ( 'NONE',  ( 6.235297990297140767E-15, 5.624099184981963292E-33, 1.785860322645500098 ) ) ;
#159 = AXIS2_PLACEMENT_3D ( 'NONE', #194, #235, #32 ) ;
#160 = DIRECTION ( 'NONE',  ( -3.491481338843133355E-15, 1.224646799147353207E-16, -1.000000000000000000 ) ) ;
#161 = CARTESIAN_POINT ( 'NONE',  ( 1.326762908760390423E-13, -4.653657836759941941E-15, 38.00000000000000000 ) ) ;
#162 = CLOSED_SHELL ( 'NONE', ( #59, #128, #49 ) ) ;
#163 = ADVANCED_FACE ( 'NONE', ( #157 ), #62, .F. ) ;
#164 = VERTEX_POINT ( 'NONE', #113 ) ;
#165 = DIRECTION ( 'NONE',  ( 0.0000000000000000000, 0.0000000000000000000, 1.000000000000000000 ) ) ;
#166 = APPLICATION_CONTEXT ( 'configuration controlled 3d designs of mechanical parts and assemblies' ) ;
#167 = VERTEX_POINT ( 'NONE', #126 ) ;
#168 = TOROIDAL_SURFACE ( 'NONE', #67, 8.750000000000000000, 8.000000000000000000 ) ;
#169 = CALENDAR_DATE ( 2021, 24, 11 ) ;
#170 = PERSON_AND_ORGANIZATION_ROLE ( 'design_supplier' ) ;
#171 = CC_DESIGN_DATE_AND_TIME_ASSIGNMENT ( #130, #35, ( #42 ) ) ;
#172 = PERSON_AND_ORGANIZATION ( #132, #229 ) ;
#173 = ORIENTED_EDGE ( 'NONE', *, *, #114, .T. ) ;
#174 = FACE_OUTER_BOUND ( 'NONE', #99, .T. ) ;
#175 = CARTESIAN_POINT ( 'NONE',  ( 6.235297990297140767E-15, -2.187048127852071188E-16, 1.785860322645500098 ) ) ;
#176 = CARTESIAN_POINT ( 'NONE',  ( -3.206873584422718626E-32, 1.124819836996393035E-33, -9.184850993605147205E-18 ) ) ;
#177 = FACE_OUTER_BOUND ( 'NONE', #6, .T. ) ;
#178 = EDGE_CURVE ( 'NONE', #238, #238, #134, .T. ) ;
#179 = FACE_OUTER_BOUND ( 'NONE', #75, .T. ) ;
#180 = PERSON_AND_ORGANIZATION ( #132, #229 ) ;
#181 = CALENDAR_DATE ( 2021, 24, 11 ) ;
#182 = MANIFOLD_SOLID_BREP ( 'Corps-Déplacer/Copier1[2]', #162 ) ;
#183 = PERSON_AND_ORGANIZATION ( #132, #229 ) ;
#184 = CARTESIAN_POINT ( 'NONE',  ( 1.117274028429802674E-14, 0.7500000000000006661, 3.200000000000000178 ) ) ;
#185 = APPROVAL_DATE_TIME ( #218, #95 ) ;
#186 = ORIENTED_EDGE ( 'NONE', *, *, #72, .F. ) ;
#187 = DATE_TIME_ROLE ( 'classification_date' ) ;
#188 = ORIENTED_EDGE ( 'NONE', *, *, #27, .F. ) ;
#189 = PERSON_AND_ORGANIZATION_ROLE ( 'creator' ) ;
#190 = EDGE_LOOP ( 'NONE', ( #206 ) ) ;
#191 = ORIENTED_EDGE ( 'NONE', *, *, #89, .T. ) ;
#192 = EDGE_LOOP ( 'NONE', ( #139 ) ) ;
#193 = FACE_OUTER_BOUND ( 'NONE', #224, .T. ) ;
#194 = CARTESIAN_POINT ( 'NONE',  ( 1.117274028429802674E-14, -3.918869757271530460E-16, 3.200000000000000178 ) ) ;
#195 = DIRECTION ( 'NONE',  ( 3.491481338843133355E-15, -1.224646799147353207E-16, 1.000000000000000000 ) ) ;
#196 = CC_DESIGN_PERSON_AND_ORGANIZATION_ASSIGNMENT ( #96, #189, ( #8 ) ) ;
#197 = DIRECTION ( 'NONE',  ( 0.0000000000000000000, 1.000000000000000000, 0.0000000000000000000 ) ) ;
#198 = CIRCLE ( 'NONE', #138, 1.200000000000003286 ) ;
#199 = VERTEX_POINT ( 'NONE', #241 ) ;
#200 = PRODUCT_DEFINITION_SHAPE ( 'NONE', 'NONE',  #42 ) ;
#201 =( LENGTH_UNIT ( ) NAMED_UNIT ( * ) SI_UNIT ( .MILLI., .METRE. ) );
#202 = MECHANICAL_CONTEXT ( 'NONE', #166, 'mechanical' ) ;
#203 = AXIS2_PLACEMENT_3D ( 'NONE', #158, #11, #43 ) ;
#204 = COORDINATED_UNIVERSAL_TIME_OFFSET ( 1, 0, .AHEAD. ) ;
#205 = PERSON_AND_ORGANIZATION ( #132, #229 ) ;
#206 = ORIENTED_EDGE ( 'NONE', *, *, #89, .F. ) ;
#207 = APPROVAL_PERSON_ORGANIZATION ( #172, #234, #56 ) ;
#208 = ORIENTED_EDGE ( 'NONE', *, *, #30, .F. ) ;
#209 = EDGE_LOOP ( 'NONE', ( #155 ) ) ;
#210 = CC_DESIGN_PERSON_AND_ORGANIZATION_ASSIGNMENT ( #205, #170, ( #8 ) ) ;
#211 = DIRECTION ( 'NONE',  ( -3.491481338843133355E-15, 1.224646799147353207E-16, -1.000000000000000000 ) ) ;
#212 = DIRECTION ( 'NONE',  ( -3.491481338843133355E-15, 1.224646799147353207E-16, -1.000000000000000000 ) ) ;
#213 = CC_DESIGN_DATE_AND_TIME_ASSIGNMENT ( #40, #187, ( #230 ) ) ;
#214 = CARTESIAN_POINT ( 'NONE',  ( 1.316288464743861212E-13, -4.616918432785521081E-15, 37.69999999999999574 ) ) ;
#215 = DIRECTION ( 'NONE',  ( 0.0000000000000000000, 1.000000000000000000, 0.0000000000000000000 ) ) ;
#216 = CALENDAR_DATE ( 2021, 24, 11 ) ;
#217 = CLOSED_SHELL ( 'NONE', ( #45, #7, #135, #117, #154, #163 ) ) ;
#218 = DATE_AND_TIME ( #181, #120 ) ;
#219 = PERSON_AND_ORGANIZATION ( #132, #229 ) ;
#220 = DIRECTION ( 'NONE',  ( 1.000000000000000000, 0.0000000000000000000, 0.0000000000000000000 ) ) ;
#221 =( GEOMETRIC_REPRESENTATION_CONTEXT ( 3 ) GLOBAL_UNCERTAINTY_ASSIGNED_CONTEXT ( ( #80 ) ) GLOBAL_UNIT_ASSIGNED_CONTEXT ( ( #201, #222, #20 ) ) REPRESENTATION_CONTEXT ( 'NONE', 'WORKASPACE' ) );
#222 =( NAMED_UNIT ( * ) PLANE_ANGLE_UNIT ( ) SI_UNIT ( $, .RADIAN. ) );
#223 = CC_DESIGN_PERSON_AND_ORGANIZATION_ASSIGNMENT ( #183, #39, ( #54 ) ) ;
#224 = EDGE_LOOP ( 'NONE', ( #118 ) ) ;
#225 = CC_DESIGN_APPROVAL ( #234, ( #230 ) ) ;
#226 = EDGE_LOOP ( 'NONE', ( #208 ) ) ;
#227 = COORDINATED_UNIVERSAL_TIME_OFFSET ( 1, 0, .AHEAD. ) ;
#228 = EDGE_LOOP ( 'NONE', ( #100 ) ) ;
#229 = ORGANIZATION ( 'UNSPECIFIED', 'UNSPECIFIED', '' ) ;
#230 = SECURITY_CLASSIFICATION ( '', '', #94 ) ;
#231 = CYLINDRICAL_SURFACE ( 'NONE', #85, 0.7500000000000005551 ) ;
#232 = DESIGN_CONTEXT ( 'detailed design', #112, 'design' ) ;
#233 = DIRECTION ( 'NONE',  ( 3.491481338843133355E-15, -1.224646799147353207E-16, 1.000000000000000000 ) ) ;
#234 = APPROVAL ( #2, 'UNSPECIFIED' ) ;
#235 = DIRECTION ( 'NONE',  ( -3.491481338843133355E-15, 1.224646799147353207E-16, -1.000000000000000000 ) ) ;
#236 = CARTESIAN_POINT ( 'NONE',  ( 1.117274028429802674E-14, 0.0000000000000000000, 3.200000000000000178 ) ) ;
#237 = DIRECTION ( 'NONE',  ( -3.491481338843133355E-15, 1.224646799147353207E-16, -1.000000000000000000 ) ) ;
#238 = VERTEX_POINT ( 'NONE', #148 ) ;
#239 = PRODUCT_RELATED_PRODUCT_CATEGORY ( 'detail', '', ( #54 ) ) ;
#240 = AXIS2_PLACEMENT_3D ( 'NONE', #176, #195, #66 ) ;
#241 = CARTESIAN_POINT ( 'NONE',  ( 2.298071130742110643E-14, 1.499999999999996225, 6.581937314617161583 ) ) ;
#242 = VERTEX_POINT ( 'NONE', #68 ) ;
#243 = APPROVAL_ROLE ( '' ) ;
ENDSEC;
END-ISO-10303-21;
