ISO-10303-21;
HEADER;
FILE_DESCRIPTION (( 'STEP AP203' ),
    '1' );
FILE_NAME ('961227.step',
    '2021-11-24T06:51:38',
    ( '' ),
    ( '' ),
    'SwSTEP 2.0',
    'SolidWorks 2019',
    '' );
FILE_SCHEMA (( 'CONFIG_CONTROL_DESIGN' ));
ENDSEC;

DATA;
#1 = LOCAL_TIME ( 7, 51, 38.00000000000000000, #12 ) ;
#2 = VERTEX_POINT ( 'NONE', #45 ) ;
#3 = DIRECTION ( 'NONE',  ( 4.275831445896958607E-31, 1.000000000000000000, 1.224646799147353207E-16 ) ) ;
#4 = PLANE ( 'NONE',  #76 ) ;
#5 = DIRECTION ( 'NONE',  ( -3.491481338843133355E-15, 1.224646799147353207E-16, -1.000000000000000000 ) ) ;
#6 = AXIS2_PLACEMENT_3D ( 'NONE', #231, #82, #101 ) ;
#7 = DIRECTION ( 'NONE',  ( -3.491481338843133355E-15, 1.224646799147353207E-16, -1.000000000000000000 ) ) ;
#8 = DIRECTION ( 'NONE',  ( 4.275831445896958607E-31, 1.000000000000000000, 1.224646799147352961E-16 ) ) ;
#9 = FACE_BOUND ( 'NONE', #39, .T. ) ;
#10 = DIRECTION ( 'NONE',  ( 1.000000000000000000, 0.0000000000000000000, 0.0000000000000000000 ) ) ;
#11 = LOCAL_TIME ( 7, 51, 38.00000000000000000, #114 ) ;
#12 = COORDINATED_UNIVERSAL_TIME_OFFSET ( 1, 0, .AHEAD. ) ;
#13 = DATE_AND_TIME ( #108, #198 ) ;
#14 = APPROVAL_DATE_TIME ( #144, #171 ) ;
#15 = CIRCLE ( 'NONE', #38, 0.7500000000000000000 ) ;
#16 = APPROVAL_ROLE ( '' ) ;
#17 = PLANE ( 'NONE',  #74 ) ;
#18 = EDGE_LOOP ( 'NONE', ( #199 ) ) ;
#19 = ADVANCED_FACE ( 'NONE', ( #184 ), #17, .F. ) ;
#20 = AXIS2_PLACEMENT_3D ( 'NONE', #63, #136, #68 ) ;
#21 = CARTESIAN_POINT ( 'NONE',  ( 6.475117143770108175E-15, 0.7499999999999997780, 1.854547258131865828 ) ) ;
#22 = PRODUCT_DEFINITION_SHAPE ( 'NONE', 'NONE',  #243 ) ;
#23 = DIRECTION ( 'NONE',  ( 3.491481338843133355E-15, -1.224646799147353207E-16, 1.000000000000000000 ) ) ;
#24 = CARTESIAN_POINT ( 'NONE',  ( 1.117274028429802674E-14, 0.0000000000000000000, 3.200000000000000178 ) ) ;
#25 = CYLINDRICAL_SURFACE ( 'NONE', #87, 0.7500000000000005551 ) ;
#26 = DIRECTION ( 'NONE',  ( 4.275831445896958607E-31, 1.000000000000000000, 1.224646799147353207E-16 ) ) ;
#27 =( NAMED_UNIT ( * ) PLANE_ANGLE_UNIT ( ) SI_UNIT ( $, .RADIAN. ) );
#28 = CYLINDRICAL_SURFACE ( 'NONE', #124, 1.500000000000000000 ) ;
#29 = DATE_AND_TIME ( #86, #116 ) ;
#30 = AXIS2_PLACEMENT_3D ( 'NONE', #119, #48, #81 ) ;
#31 = VERTEX_POINT ( 'NONE', #233 ) ;
#32 = EDGE_LOOP ( 'NONE', ( #60 ) ) ;
#33 = PERSON_AND_ORGANIZATION ( #175, #79 ) ;
#34 = ADVANCED_BREP_SHAPE_REPRESENTATION ( '961227', ( #195, #127, #215 ), #182 ) ;
#35 = APPROVAL ( #197, 'UNSPECIFIED' ) ;
#36 = APPROVAL_ROLE ( '' ) ;
#37 = ORIENTED_EDGE ( 'NONE', *, *, #185, .F. ) ;
#38 = AXIS2_PLACEMENT_3D ( 'NONE', #140, #172, #84 ) ;
#39 = EDGE_LOOP ( 'NONE', ( #53 ) ) ;
#40 = ORIENTED_EDGE ( 'NONE', *, *, #118, .T. ) ;
#41 = LOCAL_TIME ( 7, 51, 38.00000000000000000, #70 ) ;
#42 = ADVANCED_FACE ( 'NONE', ( #240, #162 ), #28, .T. ) ;
#43 = DIRECTION ( 'NONE',  ( -3.491481338843133355E-15, 1.224646799147353207E-16, -1.000000000000000000 ) ) ;
#44 = FACE_OUTER_BOUND ( 'NONE', #32, .T. ) ;
#45 = CARTESIAN_POINT ( 'NONE',  ( 6.475117143770108175E-15, 0.7499999999999997780, 1.854547258131865828 ) ) ;
#46 = PLANE ( 'NONE',  #49 ) ;
#47 = DIRECTION ( 'NONE',  ( 3.491481338843133355E-15, -1.224646799147353207E-16, 1.000000000000000000 ) ) ;
#48 = DIRECTION ( 'NONE',  ( -3.491481338843133355E-15, 1.224646799147353207E-16, -1.000000000000000000 ) ) ;
#49 = AXIS2_PLACEMENT_3D ( 'NONE', #123, #23, #192 ) ;
#50 = PERSON_AND_ORGANIZATION_ROLE ( 'design_owner' ) ;
#51 = CARTESIAN_POINT ( 'NONE',  ( 0.0000000000000000000, 0.0000000000000000000, 0.0000000000000000000 ) ) ;
#52 = DATE_TIME_ROLE ( 'classification_date' ) ;
#53 = ORIENTED_EDGE ( 'NONE', *, *, #118, .F. ) ;
#54 = PERSON_AND_ORGANIZATION ( #175, #79 ) ;
#55 = CC_DESIGN_PERSON_AND_ORGANIZATION_ASSIGNMENT ( #177, #90, ( #243 ) ) ;
#56 = EDGE_LOOP ( 'NONE', ( #73 ) ) ;
#57 = EDGE_LOOP ( 'NONE', ( #132 ) ) ;
#58 = CC_DESIGN_APPROVAL ( #35, ( #243 ) ) ;
#59 = DATE_AND_TIME ( #165, #11 ) ;
#60 = ORIENTED_EDGE ( 'NONE', *, *, #154, .F. ) ;
#61 = DIRECTION ( 'NONE',  ( 0.0000000000000000000, 1.000000000000000000, 0.0000000000000000000 ) ) ;
#62 = CARTESIAN_POINT ( 'NONE',  ( 1.326762908760390423E-13, 1.199999999999998845, 38.00000000000000000 ) ) ;
#63 = CARTESIAN_POINT ( 'NONE',  ( 6.475117143770108964E-15, 5.624099184981963292E-33, 1.854547258131865828 ) ) ;
#64 = EDGE_CURVE ( 'NONE', #67, #67, #69, .T. ) ;
#65 = CIRCLE ( 'NONE', #30, 1.500000000000003331 ) ;
#66 = CARTESIAN_POINT ( 'NONE',  ( 0.0000000000000000000, 0.0000000000000000000, 0.0000000000000000000 ) ) ;
#67 = VERTEX_POINT ( 'NONE', #21 ) ;
#68 = DIRECTION ( 'NONE',  ( -4.275831445896958607E-31, -1.000000000000000000, -1.224646799147353207E-16 ) ) ;
#69 = CIRCLE ( 'NONE', #157, 0.7500000000000000000 ) ;
#70 = COORDINATED_UNIVERSAL_TIME_OFFSET ( 1, 0, .AHEAD. ) ;
#71 = ORIENTED_EDGE ( 'NONE', *, *, #154, .T. ) ;
#72 = ADVANCED_FACE ( 'NONE', ( #44 ), #4, .F. ) ;
#73 = ORIENTED_EDGE ( 'NONE', *, *, #64, .T. ) ;
#74 = AXIS2_PLACEMENT_3D ( 'NONE', #95, #167, #91 ) ;
#75 = PERSON_AND_ORGANIZATION_ROLE ( 'design_supplier' ) ;
#76 = AXIS2_PLACEMENT_3D ( 'NONE', #188, #230, #3 ) ;
#77 = ADVANCED_FACE ( 'NONE', ( #191, #189 ), #25, .T. ) ;
#78 = CARTESIAN_POINT ( 'NONE',  ( 6.475117143770108175E-15, -2.271165363538689339E-16, 1.854547258131865828 ) ) ;
#79 = ORGANIZATION ( 'UNSPECIFIED', 'UNSPECIFIED', '' ) ;
#80 = CARTESIAN_POINT ( 'NONE',  ( 1.117274028429802674E-14, 0.7500000000000006661, 3.200000000000000178 ) ) ;
#81 = DIRECTION ( 'NONE',  ( 0.0000000000000000000, 1.000000000000000000, 0.0000000000000000000 ) ) ;
#82 = DIRECTION ( 'NONE',  ( -3.491481338843133355E-15, 1.224646799147353207E-16, -1.000000000000000000 ) ) ;
#83 = FACE_OUTER_BOUND ( 'NONE', #94, .T. ) ;
#84 = DIRECTION ( 'NONE',  ( 0.0000000000000000000, 1.000000000000000000, 0.0000000000000000000 ) ) ;
#85 = EDGE_CURVE ( 'NONE', #2, #2, #15, .T. ) ;
#86 = CALENDAR_DATE ( 2021, 24, 11 ) ;
#87 = AXIS2_PLACEMENT_3D ( 'NONE', #102, #105, #26 ) ;
#88 = CALENDAR_DATE ( 2021, 24, 11 ) ;
#89 = CC_DESIGN_PERSON_AND_ORGANIZATION_ASSIGNMENT ( #179, #50, ( #98 ) ) ;
#90 = PERSON_AND_ORGANIZATION_ROLE ( 'creator' ) ;
#91 = DIRECTION ( 'NONE',  ( -4.275831445896958607E-31, -1.000000000000000000, -1.224646799147353207E-16 ) ) ;
#92 = PERSON_AND_ORGANIZATION_ROLE ( 'classification_officer' ) ;
#93 = AXIS2_PLACEMENT_3D ( 'NONE', #24, #43, #156 ) ;
#94 = EDGE_LOOP ( 'NONE', ( #224 ) ) ;
#95 = CARTESIAN_POINT ( 'NONE',  ( -5.344789307371198395E-33, 1.874699728327322224E-34, -1.530808498934191586E-18 ) ) ;
#96 = EDGE_CURVE ( 'NONE', #120, #120, #241, .T. ) ;
#97 = APPROVAL_PERSON_ORGANIZATION ( #131, #207, #36 ) ;
#98 = PRODUCT ( '961227', '961227', '', ( #147 ) ) ;
#99 = DIRECTION ( 'NONE',  ( -3.491481338843133355E-15, 1.224646799147353207E-16, -1.000000000000000000 ) ) ;
#100 = APPROVAL_PERSON_ORGANIZATION ( #180, #35, #181 ) ;
#101 = DIRECTION ( 'NONE',  ( 0.0000000000000000000, 1.000000000000000000, 0.0000000000000000000 ) ) ;
#102 = CARTESIAN_POINT ( 'NONE',  ( 0.0000000000000000000, 0.0000000000000000000, 0.0000000000000000000 ) ) ;
#103 = CARTESIAN_POINT ( 'NONE',  ( 1.316288464743861212E-13, 1.499999999999998668, 37.69999999999999574 ) ) ;
#104 = CIRCLE ( 'NONE', #133, 1.499999999999996891 ) ;
#105 = DIRECTION ( 'NONE',  ( -3.491481338843133355E-15, 1.224646799147353207E-16, -1.000000000000000000 ) ) ;
#106 = DIRECTION ( 'NONE',  ( -3.491481338843133355E-15, 1.224646799147353207E-16, -1.000000000000000000 ) ) ;
#107 = CC_DESIGN_DATE_AND_TIME_ASSIGNMENT ( #220, #52, ( #110 ) ) ;
#108 = CALENDAR_DATE ( 2021, 24, 11 ) ;
#109 = APPROVAL_STATUS ( 'not_yet_approved' ) ;
#110 = SECURITY_CLASSIFICATION ( '', '', #217 ) ;
#111 = APPLICATION_PROTOCOL_DEFINITION ( 'international standard', 'config_control_design', 1994, #202 ) ;
#112 = EDGE_LOOP ( 'NONE', ( #222 ) ) ;
#113 =( LENGTH_UNIT ( ) NAMED_UNIT ( * ) SI_UNIT ( .MILLI., .METRE. ) );
#114 = COORDINATED_UNIVERSAL_TIME_OFFSET ( 1, 0, .AHEAD. ) ;
#115 = EDGE_LOOP ( 'NONE', ( #37 ) ) ;
#116 = LOCAL_TIME ( 7, 51, 38.00000000000000000, #161 ) ;
#117 = AXIS2_PLACEMENT_3D ( 'NONE', #213, #47, #194 ) ;
#118 = EDGE_CURVE ( 'NONE', #153, #153, #226, .T. ) ;
#119 = CARTESIAN_POINT ( 'NONE',  ( 1.316288464743861212E-13, -4.616918432785521081E-15, 37.69999999999999574 ) ) ;
#120 = VERTEX_POINT ( 'NONE', #80 ) ;
#121 = DIRECTION ( 'NONE',  ( 0.0000000000000000000, 1.000000000000000000, 0.0000000000000000000 ) ) ;
#122 = DIRECTION ( 'NONE',  ( -3.491481338843133355E-15, 1.224646799147353207E-16, -1.000000000000000000 ) ) ;
#123 = CARTESIAN_POINT ( 'NONE',  ( 6.475117143770108964E-15, 5.624099184981963292E-33, 1.854547258131865828 ) ) ;
#124 = AXIS2_PLACEMENT_3D ( 'NONE', #66, #99, #209 ) ;
#125 = DIRECTION ( 'NONE',  ( -3.491481338843133355E-15, 1.224646799147353207E-16, -1.000000000000000000 ) ) ;
#126 = APPROVAL_DATE_TIME ( #13, #35 ) ;
#127 = MANIFOLD_SOLID_BREP ( 'Corps-Déplacer/Copier1[2]', #142 ) ;
#128 = ORIENTED_EDGE ( 'NONE', *, *, #185, .T. ) ;
#129 = AXIS2_PLACEMENT_3D ( 'NONE', #176, #122, #137 ) ;
#130 = PERSON_AND_ORGANIZATION ( #175, #79 ) ;
#131 = PERSON_AND_ORGANIZATION ( #175, #79 ) ;
#132 = ORIENTED_EDGE ( 'NONE', *, *, #64, .F. ) ;
#133 = AXIS2_PLACEMENT_3D ( 'NONE', #208, #106, #212 ) ;
#134 = UNCERTAINTY_MEASURE_WITH_UNIT (LENGTH_MEASURE( 1.000000000000000082E-05 ), #113, 'distance_accuracy_value', 'NONE');
#135 = APPLICATION_CONTEXT ( 'configuration controlled 3d designs of mechanical parts and assemblies' ) ;
#136 = DIRECTION ( 'NONE',  ( 3.491481338843133355E-15, -1.224646799147353207E-16, 1.000000000000000000 ) ) ;
#137 = DIRECTION ( 'NONE',  ( 0.0000000000000000000, 1.000000000000000000, 0.0000000000000000000 ) ) ;
#138 = CC_DESIGN_SECURITY_CLASSIFICATION ( #110, ( #146 ) ) ;
#139 = VERTEX_POINT ( 'NONE', #103 ) ;
#140 = CARTESIAN_POINT ( 'NONE',  ( 6.475117143770108175E-15, -2.271165363538689339E-16, 1.854547258131865828 ) ) ;
#141 = FACE_OUTER_BOUND ( 'NONE', #57, .T. ) ;
#142 = CLOSED_SHELL ( 'NONE', ( #19, #232, #239 ) ) ;
#143 =( NAMED_UNIT ( * ) SI_UNIT ( $, .STERADIAN. ) SOLID_ANGLE_UNIT ( ) );
#144 = DATE_AND_TIME ( #178, #41 ) ;
#145 = DATE_TIME_ROLE ( 'creation_date' ) ;
#146 = PRODUCT_DEFINITION_FORMATION_WITH_SPECIFIED_SOURCE ( 'ANY', '', #98, .NOT_KNOWN. ) ;
#147 = MECHANICAL_CONTEXT ( 'NONE', #202, 'mechanical' ) ;
#148 = EDGE_LOOP ( 'NONE', ( #40 ) ) ;
#149 = CC_DESIGN_PERSON_AND_ORGANIZATION_ASSIGNMENT ( #158, #75, ( #146 ) ) ;
#150 = CONICAL_SURFACE ( 'NONE', #6, 1.200000000000003286, 0.7853981633974453924 ) ;
#151 = CARTESIAN_POINT ( 'NONE',  ( 2.137915722948479084E-32, 0.07499999999999999722, 6.123233995736764803E-18 ) ) ;
#152 = PLANE ( 'NONE',  #20 ) ;
#153 = VERTEX_POINT ( 'NONE', #151 ) ;
#154 = EDGE_CURVE ( 'NONE', #227, #227, #193, .T. ) ;
#155 = DESIGN_CONTEXT ( 'detailed design', #135, 'design' ) ;
#156 = DIRECTION ( 'NONE',  ( 4.355100981429076768E-31, 1.000000000000000000, 1.224646799147353207E-16 ) ) ;
#157 = AXIS2_PLACEMENT_3D ( 'NONE', #78, #7, #121 ) ;
#158 = PERSON_AND_ORGANIZATION ( #175, #79 ) ;
#159 = ADVANCED_FACE ( 'NONE', ( #228, #83 ), #206, .F. ) ;
#160 = DIRECTION ( 'NONE',  ( 0.0000000000000000000, 0.0000000000000000000, 1.000000000000000000 ) ) ;
#161 = COORDINATED_UNIVERSAL_TIME_OFFSET ( 1, 0, .AHEAD. ) ;
#162 = FACE_OUTER_BOUND ( 'NONE', #237, .T. ) ;
#163 = PRODUCT_RELATED_PRODUCT_CATEGORY ( 'detail', '', ( #98 ) ) ;
#164 = ORIENTED_EDGE ( 'NONE', *, *, #211, .F. ) ;
#165 = CALENDAR_DATE ( 2021, 24, 11 ) ;
#166 = EDGE_LOOP ( 'NONE', ( #183 ) ) ;
#167 = DIRECTION ( 'NONE',  ( 3.491481338843133355E-15, -1.224646799147353207E-16, 1.000000000000000000 ) ) ;
#168 = AXIS2_PLACEMENT_3D ( 'NONE', #174, #125, #8 ) ;
#169 = FACE_OUTER_BOUND ( 'NONE', #18, .T. ) ;
#170 = CARTESIAN_POINT ( 'NONE',  ( 1.326762908760390423E-13, -4.653657836759941941E-15, 38.00000000000000000 ) ) ;
#171 = APPROVAL ( #109, 'UNSPECIFIED' ) ;
#172 = DIRECTION ( 'NONE',  ( -3.491481338843133355E-15, 1.224646799147353207E-16, -1.000000000000000000 ) ) ;
#173 = CC_DESIGN_APPROVAL ( #171, ( #146 ) ) ;
#174 = CARTESIAN_POINT ( 'NONE',  ( -1.068957861474239679E-32, 3.749399456654644447E-34, -3.061616997868383172E-18 ) ) ;
#175 = PERSON ( 'UNSPECIFIED', 'UNSPECIFIED', 'UNSPECIFIED', ('UNSPECIFIED'), ('UNSPECIFIED'), ('UNSPECIFIED') ) ;
#176 = CARTESIAN_POINT ( 'NONE',  ( 1.117274028429802674E-14, -3.918869757271530460E-16, 3.200000000000000178 ) ) ;
#177 = PERSON_AND_ORGANIZATION ( #175, #79 ) ;
#178 = CALENDAR_DATE ( 2021, 24, 11 ) ;
#179 = PERSON_AND_ORGANIZATION ( #175, #79 ) ;
#180 = PERSON_AND_ORGANIZATION ( #175, #79 ) ;
#181 = APPROVAL_ROLE ( '' ) ;
#182 =( GEOMETRIC_REPRESENTATION_CONTEXT ( 3 ) GLOBAL_UNCERTAINTY_ASSIGNED_CONTEXT ( ( #134 ) ) GLOBAL_UNIT_ASSIGNED_CONTEXT ( ( #113, #27, #143 ) ) REPRESENTATION_CONTEXT ( 'NONE', 'WORKASPACE' ) );
#183 = ORIENTED_EDGE ( 'NONE', *, *, #96, .T. ) ;
#184 = FACE_OUTER_BOUND ( 'NONE', #148, .T. ) ;
#185 = EDGE_CURVE ( 'NONE', #139, #139, #65, .T. ) ;
#186 = FACE_BOUND ( 'NONE', #221, .T. ) ;
#187 = APPROVAL_PERSON_ORGANIZATION ( #54, #171, #16 ) ;
#188 = CARTESIAN_POINT ( 'NONE',  ( 1.326762908760390423E-13, 8.998558695971103225E-33, 38.00000000000000000 ) ) ;
#189 = FACE_OUTER_BOUND ( 'NONE', #112, .T. ) ;
#190 = CC_DESIGN_PERSON_AND_ORGANIZATION_ASSIGNMENT ( #33, #92, ( #110 ) ) ;
#191 = FACE_OUTER_BOUND ( 'NONE', #166, .T. ) ;
#192 = DIRECTION ( 'NONE',  ( -4.275831445896958607E-31, -1.000000000000000000, -1.224646799147353207E-16 ) ) ;
#193 = CIRCLE ( 'NONE', #229, 1.200000000000003286 ) ;
#194 = DIRECTION ( 'NONE',  ( -4.275831445896958607E-31, -1.000000000000000000, -1.224646799147352961E-16 ) ) ;
#195 = MANIFOLD_SOLID_BREP ( 'Corps-Déplacer/Copier1[1]', #234 ) ;
#196 = ADVANCED_FACE ( 'NONE', ( #169 ), #152, .F. ) ;
#197 = APPROVAL_STATUS ( 'not_yet_approved' ) ;
#198 = LOCAL_TIME ( 7, 51, 38.00000000000000000, #238 ) ;
#199 = ORIENTED_EDGE ( 'NONE', *, *, #85, .T. ) ;
#200 = APPROVAL_STATUS ( 'not_yet_approved' ) ;
#201 = EDGE_LOOP ( 'NONE', ( #164 ) ) ;
#202 = APPLICATION_CONTEXT ( 'configuration controlled 3d designs of mechanical parts and assemblies' ) ;
#203 = EDGE_LOOP ( 'NONE', ( #205 ) ) ;
#204 = SHAPE_DEFINITION_REPRESENTATION ( #22, #34 ) ;
#205 = ORIENTED_EDGE ( 'NONE', *, *, #211, .T. ) ;
#206 = TOROIDAL_SURFACE ( 'NONE', #93, 8.750000000000000000, 8.000000000000000000 ) ;
#207 = APPROVAL ( #200, 'UNSPECIFIED' ) ;
#208 = CARTESIAN_POINT ( 'NONE',  ( 2.298071130742110643E-14, -8.060548464534433501E-16, 6.581937314617161583 ) ) ;
#209 = DIRECTION ( 'NONE',  ( 4.275831445896959482E-31, 1.000000000000000000, 1.224646799147353207E-16 ) ) ;
#210 = FACE_OUTER_BOUND ( 'NONE', #115, .T. ) ;
#211 = EDGE_CURVE ( 'NONE', #31, #31, #104, .T. ) ;
#212 = DIRECTION ( 'NONE',  ( 0.0000000000000000000, 1.000000000000000000, 0.0000000000000000000 ) ) ;
#213 = CARTESIAN_POINT ( 'NONE',  ( -1.068957861474239679E-32, 3.749399456654644447E-34, -3.061616997868383172E-18 ) ) ;
#214 = FACE_OUTER_BOUND ( 'NONE', #56, .T. ) ;
#215 = AXIS2_PLACEMENT_3D ( 'NONE', #51, #160, #10 ) ;
#216 = CC_DESIGN_PERSON_AND_ORGANIZATION_ASSIGNMENT ( #130, #235, ( #146 ) ) ;
#217 = SECURITY_CLASSIFICATION_LEVEL ( 'unclassified' ) ;
#218 = CC_DESIGN_DATE_AND_TIME_ASSIGNMENT ( #29, #145, ( #243 ) ) ;
#219 = CONICAL_SURFACE ( 'NONE', #117, 0.07499999999999999722, 0.3490658503988666728 ) ;
#220 = DATE_AND_TIME ( #88, #1 ) ;
#221 = EDGE_LOOP ( 'NONE', ( #71 ) ) ;
#222 = ORIENTED_EDGE ( 'NONE', *, *, #85, .F. ) ;
#223 = CC_DESIGN_APPROVAL ( #207, ( #110 ) ) ;
#224 = ORIENTED_EDGE ( 'NONE', *, *, #96, .F. ) ;
#225 = ADVANCED_FACE ( 'NONE', ( #210, #186 ), #150, .T. ) ;
#226 = CIRCLE ( 'NONE', #168, 0.07499999999999999722 ) ;
#227 = VERTEX_POINT ( 'NONE', #62 ) ;
#228 = FACE_OUTER_BOUND ( 'NONE', #203, .T. ) ;
#229 = AXIS2_PLACEMENT_3D ( 'NONE', #170, #5, #61 ) ;
#230 = DIRECTION ( 'NONE',  ( -3.491481338843133355E-15, 1.224646799147353207E-16, -1.000000000000000000 ) ) ;
#231 = CARTESIAN_POINT ( 'NONE',  ( 1.326762908760390423E-13, -4.653657836759941941E-15, 38.00000000000000000 ) ) ;
#232 = ADVANCED_FACE ( 'NONE', ( #214, #9 ), #219, .T. ) ;
#233 = CARTESIAN_POINT ( 'NONE',  ( 2.298071130742110643E-14, 1.499999999999996225, 6.581937314617161583 ) ) ;
#234 = CLOSED_SHELL ( 'NONE', ( #196, #77, #159, #42, #225, #72 ) ) ;
#235 = PERSON_AND_ORGANIZATION_ROLE ( 'creator' ) ;
#236 = APPLICATION_PROTOCOL_DEFINITION ( 'international standard', 'config_control_design', 1994, #135 ) ;
#237 = EDGE_LOOP ( 'NONE', ( #128 ) ) ;
#238 = COORDINATED_UNIVERSAL_TIME_OFFSET ( 1, 0, .AHEAD. ) ;
#239 = ADVANCED_FACE ( 'NONE', ( #141 ), #46, .T. ) ;
#240 = FACE_OUTER_BOUND ( 'NONE', #201, .T. ) ;
#241 = CIRCLE ( 'NONE', #129, 0.7500000000000011102 ) ;
#242 = APPROVAL_DATE_TIME ( #59, #207 ) ;
#243 = PRODUCT_DEFINITION ( 'UNKNOWN', '', #146, #155 ) ;
ENDSEC;
END-ISO-10303-21;
