ISO-10303-21;
HEADER;
FILE_DESCRIPTION (( 'STEP AP203' ),
    '1' );
FILE_NAME ('961226.step',
    '2021-11-24T06:51:38',
    ( '' ),
    ( '' ),
    'SwSTEP 2.0',
    'SolidWorks 2019',
    '' );
FILE_SCHEMA (( 'CONFIG_CONTROL_DESIGN' ));
ENDSEC;

DATA;
#1 = MECHANICAL_CONTEXT ( 'NONE', #163, 'mechanical' ) ;
#2 = PERSON_AND_ORGANIZATION ( #125, #123 ) ;
#3 = APPLICATION_PROTOCOL_DEFINITION ( 'international standard', 'config_control_design', 1994, #239 ) ;
#4 = COORDINATED_UNIVERSAL_TIME_OFFSET ( 1, 0, .AHEAD. ) ;
#5 = EDGE_LOOP ( 'NONE', ( #23 ) ) ;
#6 = COORDINATED_UNIVERSAL_TIME_OFFSET ( 1, 0, .AHEAD. ) ;
#7 = EDGE_CURVE ( 'NONE', #73, #73, #170, .T. ) ;
#8 = UNCERTAINTY_MEASURE_WITH_UNIT (LENGTH_MEASURE( 1.000000000000000082E-05 ), #89, 'distance_accuracy_value', 'NONE');
#9 = APPROVAL ( #95, 'UNSPECIFIED' ) ;
#10 = FACE_BOUND ( 'NONE', #195, .T. ) ;
#11 = DIRECTION ( 'NONE',  ( 3.491481338843133355E-15, -1.224646799147353207E-16, 1.000000000000000000 ) ) ;
#12 = CIRCLE ( 'NONE', #132, 1.500000000000003331 ) ;
#13 = ADVANCED_FACE ( 'NONE', ( #235 ), #46, .T. ) ;
#14 = DIRECTION ( 'NONE',  ( 0.0000000000000000000, 1.000000000000000000, 0.0000000000000000000 ) ) ;
#15 = DIRECTION ( 'NONE',  ( -4.275831445896958607E-31, -1.000000000000000000, -1.224646799147353207E-16 ) ) ;
#16 = PLANE ( 'NONE',  #88 ) ;
#17 = CC_DESIGN_APPROVAL ( #9, ( #191 ) ) ;
#18 = CARTESIAN_POINT ( 'NONE',  ( 2.298071130742111905E-14, 1.499999999999996225, 6.581937314617165136 ) ) ;
#19 = CONICAL_SURFACE ( 'NONE', #151, 0.05000000000000000278, 0.3490658503988665062 ) ;
#20 = ADVANCED_FACE ( 'NONE', ( #200 ), #159, .F. ) ;
#21 = SECURITY_CLASSIFICATION_LEVEL ( 'unclassified' ) ;
#22 = APPROVAL_PERSON_ORGANIZATION ( #226, #204, #127 ) ;
#23 = ORIENTED_EDGE ( 'NONE', *, *, #131, .F. ) ;
#24 = CARTESIAN_POINT ( 'NONE',  ( 1.326762908760390423E-13, -4.653657836759941941E-15, 38.00000000000000000 ) ) ;
#25 = DIRECTION ( 'NONE',  ( 3.491481338843133355E-15, -1.224646799147353207E-16, 1.000000000000000000 ) ) ;
#26 = DIRECTION ( 'NONE',  ( -3.491481338843133355E-15, 1.224646799147353207E-16, -1.000000000000000000 ) ) ;
#27 = FACE_OUTER_BOUND ( 'NONE', #5, .T. ) ;
#28 = MANIFOLD_SOLID_BREP ( 'Corps-Déplacer/Copier1[2]', #52 ) ;
#29 = MANIFOLD_SOLID_BREP ( 'Corps-Déplacer/Copier1[1]', #196 ) ;
#30 = FACE_OUTER_BOUND ( 'NONE', #211, .T. ) ;
#31 = CARTESIAN_POINT ( 'NONE',  ( 1.326762908760390423E-13, 1.199999999999998845, 38.00000000000000000 ) ) ;
#32 = AXIS2_PLACEMENT_3D ( 'NONE', #61, #177, #117 ) ;
#33 = VERTEX_POINT ( 'NONE', #203 ) ;
#34 = PERSON_AND_ORGANIZATION ( #125, #123 ) ;
#35 = PERSON_AND_ORGANIZATION_ROLE ( 'creator' ) ;
#36 =( NAMED_UNIT ( * ) PLANE_ANGLE_UNIT ( ) SI_UNIT ( $, .RADIAN. ) );
#37 = DATE_TIME_ROLE ( 'creation_date' ) ;
#38 = LOCAL_TIME ( 7, 51, 38.00000000000000000, #146 ) ;
#39 = APPROVAL_STATUS ( 'not_yet_approved' ) ;
#40 = COORDINATED_UNIVERSAL_TIME_OFFSET ( 1, 0, .AHEAD. ) ;
#41 = PERSON_AND_ORGANIZATION ( #125, #123 ) ;
#42 = ORIENTED_EDGE ( 'NONE', *, *, #7, .T. ) ;
#43 = DATE_AND_TIME ( #78, #112 ) ;
#44 = ORIENTED_EDGE ( 'NONE', *, *, #131, .T. ) ;
#45 = EDGE_LOOP ( 'NONE', ( #44 ) ) ;
#46 = PLANE ( 'NONE',  #135 ) ;
#47 = AXIS2_PLACEMENT_3D ( 'NONE', #118, #25, #134 ) ;
#48 = DIRECTION ( 'NONE',  ( 0.0000000000000000000, 1.000000000000000000, 0.0000000000000000000 ) ) ;
#49 = ADVANCED_FACE ( 'NONE', ( #70, #30 ), #68, .T. ) ;
#50 = DIRECTION ( 'NONE',  ( -3.491481338843133355E-15, 1.224646799147353207E-16, -1.000000000000000000 ) ) ;
#51 = DIRECTION ( 'NONE',  ( -4.275831445896958607E-31, -1.000000000000000000, -1.224646799147353207E-16 ) ) ;
#52 = CLOSED_SHELL ( 'NONE', ( #20, #198, #13 ) ) ;
#53 = CYLINDRICAL_SURFACE ( 'NONE', #121, 0.7499999999999995559 ) ;
#54 = CALENDAR_DATE ( 2021, 24, 11 ) ;
#55 = APPROVAL_DATE_TIME ( #206, #204 ) ;
#56 = CC_DESIGN_APPROVAL ( #111, ( #72 ) ) ;
#57 = PERSON_AND_ORGANIZATION_ROLE ( 'classification_officer' ) ;
#58 = EDGE_CURVE ( 'NONE', #225, #225, #12, .T. ) ;
#59 = AXIS2_PLACEMENT_3D ( 'NONE', #142, #161, #241 ) ;
#60 = CALENDAR_DATE ( 2021, 24, 11 ) ;
#61 = CARTESIAN_POINT ( 'NONE',  ( 6.714936297243076371E-15, -2.355282599225307736E-16, 1.923234193618231336 ) ) ;
#62 = ORIENTED_EDGE ( 'NONE', *, *, #133, .T. ) ;
#63 = AXIS2_PLACEMENT_3D ( 'NONE', #160, #26, #197 ) ;
#64 = EDGE_LOOP ( 'NONE', ( #174 ) ) ;
#65 = ADVANCED_FACE ( 'NONE', ( #201 ), #238, .F. ) ;
#66 = CARTESIAN_POINT ( 'NONE',  ( 1.117274028429802674E-14, 0.0000000000000000000, 3.200000000000000178 ) ) ;
#67 = SHAPE_DEFINITION_REPRESENTATION ( #126, #199 ) ;
#68 = CYLINDRICAL_SURFACE ( 'NONE', #76, 1.500000000000000000 ) ;
#69 = DIRECTION ( 'NONE',  ( -3.491481338843133355E-15, 1.224646799147353207E-16, -1.000000000000000000 ) ) ;
#70 = FACE_OUTER_BOUND ( 'NONE', #150, .T. ) ;
#71 = FACE_OUTER_BOUND ( 'NONE', #77, .T. ) ;
#72 = PRODUCT_DEFINITION_FORMATION_WITH_SPECIFIED_SOURCE ( 'ANY', '', #243, .NOT_KNOWN. ) ;
#73 = VERTEX_POINT ( 'NONE', #87 ) ;
#74 = APPROVAL_DATE_TIME ( #212, #111 ) ;
#75 = CARTESIAN_POINT ( 'NONE',  ( 1.117274028429802674E-14, 0.7499999999999988898, 3.200000000000000178 ) ) ;
#76 = AXIS2_PLACEMENT_3D ( 'NONE', #136, #120, #220 ) ;
#77 = EDGE_LOOP ( 'NONE', ( #79 ) ) ;
#78 = CALENDAR_DATE ( 2021, 24, 11 ) ;
#79 = ORIENTED_EDGE ( 'NONE', *, *, #145, .T. ) ;
#80 = AXIS2_PLACEMENT_3D ( 'NONE', #153, #218, #179 ) ;
#81 = DESIGN_CONTEXT ( 'detailed design', #239, 'design' ) ;
#82 = CARTESIAN_POINT ( 'NONE',  ( -1.710332578358783705E-32, 5.999039130647431458E-34, -4.898587196589413537E-18 ) ) ;
#83 = DIRECTION ( 'NONE',  ( 0.0000000000000000000, 1.000000000000000000, 0.0000000000000000000 ) ) ;
#84 = AXIS2_PLACEMENT_3D ( 'NONE', #214, #240, #115 ) ;
#85 = FACE_OUTER_BOUND ( 'NONE', #130, .T. ) ;
#86 = CARTESIAN_POINT ( 'NONE',  ( 0.0000000000000000000, 0.0000000000000000000, 0.0000000000000000000 ) ) ;
#87 = CARTESIAN_POINT ( 'NONE',  ( 6.714936297243076371E-15, 0.7499999999999996669, 1.923234193618231336 ) ) ;
#88 = AXIS2_PLACEMENT_3D ( 'NONE', #180, #11, #15 ) ;
#89 =( LENGTH_UNIT ( ) NAMED_UNIT ( * ) SI_UNIT ( .MILLI., .METRE. ) );
#90 = ADVANCED_FACE ( 'NONE', ( #104, #139 ), #167, .T. ) ;
#91 = DATE_AND_TIME ( #189, #223 ) ;
#92 = AXIS2_PLACEMENT_3D ( 'NONE', #100, #122, #83 ) ;
#93 = PRODUCT_RELATED_PRODUCT_CATEGORY ( 'detail', '', ( #243 ) ) ;
#94 = PERSON_AND_ORGANIZATION ( #125, #123 ) ;
#95 = APPROVAL_STATUS ( 'not_yet_approved' ) ;
#96 = CC_DESIGN_DATE_AND_TIME_ASSIGNMENT ( #91, #168, ( #191 ) ) ;
#97 = ORIENTED_EDGE ( 'NONE', *, *, #138, .F. ) ;
#98 = LOCAL_TIME ( 7, 51, 38.00000000000000000, #40 ) ;
#99 = DIRECTION ( 'NONE',  ( -3.491481338843133355E-15, 1.224646799147353207E-16, -1.000000000000000000 ) ) ;
#100 = CARTESIAN_POINT ( 'NONE',  ( 1.117274028429802674E-14, -3.918869757271530460E-16, 3.200000000000000178 ) ) ;
#101 = CARTESIAN_POINT ( 'NONE',  ( 6.714936297243076371E-15, 5.624099184981962608E-33, 1.923234193618231336 ) ) ;
#102 = CARTESIAN_POINT ( 'NONE',  ( 1.316288464743861212E-13, 1.499999999999998668, 37.69999999999999574 ) ) ;
#103 = ADVANCED_FACE ( 'NONE', ( #71 ), #16, .F. ) ;
#104 = FACE_OUTER_BOUND ( 'NONE', #188, .T. ) ;
#105 = FACE_OUTER_BOUND ( 'NONE', #227, .T. ) ;
#106 = CIRCLE ( 'NONE', #63, 1.200000000000003286 ) ;
#107 = PERSON_AND_ORGANIZATION_ROLE ( 'creator' ) ;
#108 = CARTESIAN_POINT ( 'NONE',  ( 0.0000000000000000000, 0.0000000000000000000, 0.0000000000000000000 ) ) ;
#109 = APPROVAL_ROLE ( '' ) ;
#110 = PERSON_AND_ORGANIZATION_ROLE ( 'design_supplier' ) ;
#111 = APPROVAL ( #171, 'UNSPECIFIED' ) ;
#112 = LOCAL_TIME ( 7, 51, 38.00000000000000000, #154 ) ;
#113 = ORIENTED_EDGE ( 'NONE', *, *, #145, .F. ) ;
#114 =( GEOMETRIC_REPRESENTATION_CONTEXT ( 3 ) GLOBAL_UNCERTAINTY_ASSIGNED_CONTEXT ( ( #8 ) ) GLOBAL_UNIT_ASSIGNED_CONTEXT ( ( #89, #36, #224 ) ) REPRESENTATION_CONTEXT ( 'NONE', 'WORKASPACE' ) );
#115 = DIRECTION ( 'NONE',  ( 4.275831445896958607E-31, 1.000000000000000000, 1.224646799147353207E-16 ) ) ;
#116 = APPROVAL_DATE_TIME ( #43, #9 ) ;
#117 = DIRECTION ( 'NONE',  ( 0.0000000000000000000, 1.000000000000000000, 0.0000000000000000000 ) ) ;
#118 = CARTESIAN_POINT ( 'NONE',  ( -8.551662891793918527E-33, 2.999519565323715729E-34, -2.449293598294706769E-18 ) ) ;
#119 = CC_DESIGN_PERSON_AND_ORGANIZATION_ASSIGNMENT ( #41, #110, ( #72 ) ) ;
#120 = DIRECTION ( 'NONE',  ( -3.491481338843133355E-15, 1.224646799147353207E-16, -1.000000000000000000 ) ) ;
#121 = AXIS2_PLACEMENT_3D ( 'NONE', #86, #69, #137 ) ;
#122 = DIRECTION ( 'NONE',  ( -3.491481338843133355E-15, 1.224646799147353207E-16, -1.000000000000000000 ) ) ;
#123 = ORGANIZATION ( 'UNSPECIFIED', 'UNSPECIFIED', '' ) ;
#124 = PERSON_AND_ORGANIZATION ( #125, #123 ) ;
#125 = PERSON ( 'UNSPECIFIED', 'UNSPECIFIED', 'UNSPECIFIED', ('UNSPECIFIED'), ('UNSPECIFIED'), ('UNSPECIFIED') ) ;
#126 = PRODUCT_DEFINITION_SHAPE ( 'NONE', 'NONE',  #176 ) ;
#127 = APPROVAL_ROLE ( '' ) ;
#128 = LOCAL_TIME ( 7, 51, 38.00000000000000000, #4 ) ;
#129 = ORIENTED_EDGE ( 'NONE', *, *, #222, .F. ) ;
#130 = EDGE_LOOP ( 'NONE', ( #113 ) ) ;
#131 = EDGE_CURVE ( 'NONE', #207, #207, #215, .T. ) ;
#132 = AXIS2_PLACEMENT_3D ( 'NONE', #237, #50, #216 ) ;
#133 = EDGE_CURVE ( 'NONE', #165, #165, #106, .T. ) ;
#134 = DIRECTION ( 'NONE',  ( -4.275831445896958607E-31, -1.000000000000000000, -1.224646799147353207E-16 ) ) ;
#135 = AXIS2_PLACEMENT_3D ( 'NONE', #101, #182, #51 ) ;
#136 = CARTESIAN_POINT ( 'NONE',  ( 0.0000000000000000000, 0.0000000000000000000, 0.0000000000000000000 ) ) ;
#137 = DIRECTION ( 'NONE',  ( 4.275831445896958607E-31, 1.000000000000000000, 1.224646799147353454E-16 ) ) ;
#138 = EDGE_CURVE ( 'NONE', #164, #164, #143, .T. ) ;
#139 = FACE_BOUND ( 'NONE', #172, .T. ) ;
#140 = FACE_OUTER_BOUND ( 'NONE', #148, .T. ) ;
#141 = AXIS2_PLACEMENT_3D ( 'NONE', #108, #185, #169 ) ;
#142 = CARTESIAN_POINT ( 'NONE',  ( 2.298071130742111905E-14, -8.060548464534436459E-16, 6.581937314617165136 ) ) ;
#143 = CIRCLE ( 'NONE', #80, 0.05000000000000000278 ) ;
#144 = PERSON_AND_ORGANIZATION_ROLE ( 'design_owner' ) ;
#145 = EDGE_CURVE ( 'NONE', #33, #33, #162, .T. ) ;
#146 = COORDINATED_UNIVERSAL_TIME_OFFSET ( 1, 0, .AHEAD. ) ;
#147 = CC_DESIGN_SECURITY_CLASSIFICATION ( #191, ( #72 ) ) ;
#148 = EDGE_LOOP ( 'NONE', ( #190 ) ) ;
#149 = ORIENTED_EDGE ( 'NONE', *, *, #58, .F. ) ;
#150 = EDGE_LOOP ( 'NONE', ( #129 ) ) ;
#151 = AXIS2_PLACEMENT_3D ( 'NONE', #82, #155, #221 ) ;
#152 = APPROVAL_ROLE ( '' ) ;
#153 = CARTESIAN_POINT ( 'NONE',  ( -1.710332578358783705E-32, 5.999039130647431458E-34, -4.898587196589413537E-18 ) ) ;
#154 = COORDINATED_UNIVERSAL_TIME_OFFSET ( 1, 0, .AHEAD. ) ;
#155 = DIRECTION ( 'NONE',  ( 3.491481338843133355E-15, -1.224646799147353207E-16, 1.000000000000000000 ) ) ;
#156 = APPROVAL_PERSON_ORGANIZATION ( #187, #111, #109 ) ;
#157 = CC_DESIGN_PERSON_AND_ORGANIZATION_ASSIGNMENT ( #124, #35, ( #176 ) ) ;
#158 = FACE_OUTER_BOUND ( 'NONE', #45, .T. ) ;
#159 = PLANE ( 'NONE',  #47 ) ;
#160 = CARTESIAN_POINT ( 'NONE',  ( 1.326762908760390423E-13, -4.653657836759941941E-15, 38.00000000000000000 ) ) ;
#161 = DIRECTION ( 'NONE',  ( -3.491481338843133355E-15, 1.224646799147353207E-16, -1.000000000000000000 ) ) ;
#162 = CIRCLE ( 'NONE', #236, 0.7499999999999998890 ) ;
#163 = APPLICATION_CONTEXT ( 'configuration controlled 3d designs of mechanical parts and assemblies' ) ;
#164 = VERTEX_POINT ( 'NONE', #242 ) ;
#165 = VERTEX_POINT ( 'NONE', #31 ) ;
#166 = ADVANCED_FACE ( 'NONE', ( #158, #85 ), #53, .T. ) ;
#167 = CONICAL_SURFACE ( 'NONE', #178, 1.200000000000003286, 0.7853981633974453924 ) ;
#168 = DATE_TIME_ROLE ( 'classification_date' ) ;
#169 = DIRECTION ( 'NONE',  ( 1.000000000000000000, 0.0000000000000000000, 0.0000000000000000000 ) ) ;
#170 = CIRCLE ( 'NONE', #32, 0.7499999999999998890 ) ;
#171 = APPROVAL_STATUS ( 'not_yet_approved' ) ;
#172 = EDGE_LOOP ( 'NONE', ( #62 ) ) ;
#173 = CC_DESIGN_APPROVAL ( #204, ( #176 ) ) ;
#174 = ORIENTED_EDGE ( 'NONE', *, *, #133, .F. ) ;
#175 = DIRECTION ( 'NONE',  ( 4.355100981429076768E-31, 1.000000000000000000, 1.224646799147353207E-16 ) ) ;
#176 = PRODUCT_DEFINITION ( 'UNKNOWN', '', #72, #81 ) ;
#177 = DIRECTION ( 'NONE',  ( -3.491481338843133355E-15, 1.224646799147353207E-16, -1.000000000000000000 ) ) ;
#178 = AXIS2_PLACEMENT_3D ( 'NONE', #24, #217, #48 ) ;
#179 = DIRECTION ( 'NONE',  ( 4.275831445896958607E-31, 1.000000000000000000, 1.224646799147353207E-16 ) ) ;
#180 = CARTESIAN_POINT ( 'NONE',  ( 6.714936297243076371E-15, 5.624099184981962608E-33, 1.923234193618231336 ) ) ;
#181 = CC_DESIGN_PERSON_AND_ORGANIZATION_ASSIGNMENT ( #34, #107, ( #72 ) ) ;
#182 = DIRECTION ( 'NONE',  ( 3.491481338843133355E-15, -1.224646799147353207E-16, 1.000000000000000000 ) ) ;
#183 = PERSON_AND_ORGANIZATION ( #125, #123 ) ;
#184 = ADVANCED_FACE ( 'NONE', ( #140, #27 ), #233, .F. ) ;
#185 = DIRECTION ( 'NONE',  ( 0.0000000000000000000, 0.0000000000000000000, 1.000000000000000000 ) ) ;
#186 = CIRCLE ( 'NONE', #59, 1.499999999999996891 ) ;
#187 = PERSON_AND_ORGANIZATION ( #125, #123 ) ;
#188 = EDGE_LOOP ( 'NONE', ( #149 ) ) ;
#189 = CALENDAR_DATE ( 2021, 24, 11 ) ;
#190 = ORIENTED_EDGE ( 'NONE', *, *, #222, .T. ) ;
#191 = SECURITY_CLASSIFICATION ( '', '', #21 ) ;
#192 = EDGE_LOOP ( 'NONE', ( #230 ) ) ;
#193 = CC_DESIGN_PERSON_AND_ORGANIZATION_ASSIGNMENT ( #183, #57, ( #191 ) ) ;
#194 = ORIENTED_EDGE ( 'NONE', *, *, #7, .F. ) ;
#195 = EDGE_LOOP ( 'NONE', ( #97 ) ) ;
#196 = CLOSED_SHELL ( 'NONE', ( #103, #166, #184, #49, #90, #65 ) ) ;
#197 = DIRECTION ( 'NONE',  ( 0.0000000000000000000, 1.000000000000000000, 0.0000000000000000000 ) ) ;
#198 = ADVANCED_FACE ( 'NONE', ( #105, #10 ), #19, .T. ) ;
#199 = ADVANCED_BREP_SHAPE_REPRESENTATION ( '961226', ( #29, #28, #141 ), #114 ) ;
#200 = FACE_OUTER_BOUND ( 'NONE', #192, .T. ) ;
#201 = FACE_OUTER_BOUND ( 'NONE', #64, .T. ) ;
#202 = DIRECTION ( 'NONE',  ( -3.491481338843133355E-15, 1.224646799147353207E-16, -1.000000000000000000 ) ) ;
#203 = CARTESIAN_POINT ( 'NONE',  ( 6.714936297243076371E-15, 0.7499999999999996669, 1.923234193618231336 ) ) ;
#204 = APPROVAL ( #39, 'UNSPECIFIED' ) ;
#205 = APPLICATION_PROTOCOL_DEFINITION ( 'international standard', 'config_control_design', 1994, #163 ) ;
#206 = DATE_AND_TIME ( #54, #38 ) ;
#207 = VERTEX_POINT ( 'NONE', #75 ) ;
#208 = DATE_AND_TIME ( #229, #98 ) ;
#209 = VERTEX_POINT ( 'NONE', #18 ) ;
#210 = AXIS2_PLACEMENT_3D ( 'NONE', #66, #99, #175 ) ;
#211 = EDGE_LOOP ( 'NONE', ( #231 ) ) ;
#212 = DATE_AND_TIME ( #60, #128 ) ;
#213 = CC_DESIGN_DATE_AND_TIME_ASSIGNMENT ( #208, #37, ( #176 ) ) ;
#214 = CARTESIAN_POINT ( 'NONE',  ( 1.326762908760390423E-13, 8.998558695971103225E-33, 38.00000000000000000 ) ) ;
#215 = CIRCLE ( 'NONE', #92, 0.7499999999999993339 ) ;
#216 = DIRECTION ( 'NONE',  ( 0.0000000000000000000, 1.000000000000000000, 0.0000000000000000000 ) ) ;
#217 = DIRECTION ( 'NONE',  ( -3.491481338843133355E-15, 1.224646799147353207E-16, -1.000000000000000000 ) ) ;
#218 = DIRECTION ( 'NONE',  ( -3.491481338843133355E-15, 1.224646799147353207E-16, -1.000000000000000000 ) ) ;
#219 = CC_DESIGN_PERSON_AND_ORGANIZATION_ASSIGNMENT ( #94, #144, ( #243 ) ) ;
#220 = DIRECTION ( 'NONE',  ( 4.275831445896959482E-31, 1.000000000000000000, 1.224646799147353207E-16 ) ) ;
#221 = DIRECTION ( 'NONE',  ( -4.275831445896958607E-31, -1.000000000000000000, -1.224646799147353207E-16 ) ) ;
#222 = EDGE_CURVE ( 'NONE', #209, #209, #186, .T. ) ;
#223 = LOCAL_TIME ( 7, 51, 38.00000000000000000, #6 ) ;
#224 =( NAMED_UNIT ( * ) SI_UNIT ( $, .STERADIAN. ) SOLID_ANGLE_UNIT ( ) );
#225 = VERTEX_POINT ( 'NONE', #102 ) ;
#226 = PERSON_AND_ORGANIZATION ( #125, #123 ) ;
#227 = EDGE_LOOP ( 'NONE', ( #42 ) ) ;
#228 = APPROVAL_PERSON_ORGANIZATION ( #2, #9, #152 ) ;
#229 = CALENDAR_DATE ( 2021, 24, 11 ) ;
#230 = ORIENTED_EDGE ( 'NONE', *, *, #138, .T. ) ;
#231 = ORIENTED_EDGE ( 'NONE', *, *, #58, .T. ) ;
#232 = EDGE_LOOP ( 'NONE', ( #194 ) ) ;
#233 = TOROIDAL_SURFACE ( 'NONE', #210, 8.749999999999998224, 8.000000000000000000 ) ;
#234 = CARTESIAN_POINT ( 'NONE',  ( 6.714936297243076371E-15, -2.355282599225307736E-16, 1.923234193618231336 ) ) ;
#235 = FACE_OUTER_BOUND ( 'NONE', #232, .T. ) ;
#236 = AXIS2_PLACEMENT_3D ( 'NONE', #234, #202, #14 ) ;
#237 = CARTESIAN_POINT ( 'NONE',  ( 1.316288464743861212E-13, -4.616918432785521081E-15, 37.69999999999999574 ) ) ;
#238 = PLANE ( 'NONE',  #84 ) ;
#239 = APPLICATION_CONTEXT ( 'configuration controlled 3d designs of mechanical parts and assemblies' ) ;
#240 = DIRECTION ( 'NONE',  ( -3.491481338843133355E-15, 1.224646799147353207E-16, -1.000000000000000000 ) ) ;
#241 = DIRECTION ( 'NONE',  ( 0.0000000000000000000, 1.000000000000000000, 0.0000000000000000000 ) ) ;
#242 = CARTESIAN_POINT ( 'NONE',  ( 4.275831445896955842E-33, 0.05000000000000000278, 1.224646799147352614E-18 ) ) ;
#243 = PRODUCT ( '961226', '961226', '', ( #1 ) ) ;
ENDSEC;
END-ISO-10303-21;
