ISO-10303-21;
HEADER;
FILE_DESCRIPTION (( 'STEP AP203' ),
    '1' );
FILE_NAME ('961225.step',
    '2021-11-24T06:51:36',
    ( '' ),
    ( '' ),
    'SwSTEP 2.0',
    'SolidWorks 2019',
    '' );
FILE_SCHEMA (( 'CONFIG_CONTROL_DESIGN' ));
ENDSEC;

DATA;
#1 =( LENGTH_UNIT ( ) NAMED_UNIT ( * ) SI_UNIT ( .MILLI., .METRE. ) );
#2 = VERTEX_POINT ( 'NONE', #140 ) ;
#3 = APPLICATION_PROTOCOL_DEFINITION ( 'international standard', 'config_control_design', 1994, #114 ) ;
#4 = LOCAL_TIME ( 7, 51, 36.00000000000000000, #186 ) ;
#5 = COORDINATED_UNIVERSAL_TIME_OFFSET ( 1, 0, .AHEAD. ) ;
#6 = DATE_AND_TIME ( #128, #95 ) ;
#7 = AXIS2_PLACEMENT_3D ( 'NONE', #156, #63, #217 ) ;
#8 = PERSON_AND_ORGANIZATION ( #188, #84 ) ;
#9 = DIRECTION ( 'NONE',  ( 3.491481338843133355E-15, -1.224646799147353207E-16, 1.000000000000000000 ) ) ;
#10 = ORIENTED_EDGE ( 'NONE', *, *, #225, .T. ) ;
#11 = DIRECTION ( 'NONE',  ( 0.0000000000000000000, 1.000000000000000000, 0.0000000000000000000 ) ) ;
#12 = EDGE_LOOP ( 'NONE', ( #34 ) ) ;
#13 = LOCAL_TIME ( 7, 51, 36.00000000000000000, #5 ) ;
#14 = DIRECTION ( 'NONE',  ( 0.0000000000000000000, 1.000000000000000000, 0.0000000000000000000 ) ) ;
#15 = DIRECTION ( 'NONE',  ( 0.0000000000000000000, 1.000000000000000000, 0.0000000000000000000 ) ) ;
#16 = APPLICATION_PROTOCOL_DEFINITION ( 'international standard', 'config_control_design', 1994, #129 ) ;
#17 = VERTEX_POINT ( 'NONE', #145 ) ;
#18 = LOCAL_TIME ( 7, 51, 36.00000000000000000, #58 ) ;
#19 = MECHANICAL_CONTEXT ( 'NONE', #129, 'mechanical' ) ;
#20 = PERSON_AND_ORGANIZATION_ROLE ( 'classification_officer' ) ;
#21 = AXIS2_PLACEMENT_3D ( 'NONE', #205, #37, #185 ) ;
#22 = PERSON_AND_ORGANIZATION ( #188, #84 ) ;
#23 = DATE_AND_TIME ( #57, #13 ) ;
#24 = TOROIDAL_SURFACE ( 'NONE', #189, 8.750000000000000000, 8.000000000000000000 ) ;
#25 = AXIS2_PLACEMENT_3D ( 'NONE', #90, #138, #14 ) ;
#26 = DATE_AND_TIME ( #80, #18 ) ;
#27 = DIRECTION ( 'NONE',  ( -3.491481338843133355E-15, 1.224646799147353207E-16, -1.000000000000000000 ) ) ;
#28 = FACE_OUTER_BOUND ( 'NONE', #174, .T. ) ;
#29 = DIRECTION ( 'NONE',  ( 4.275831445896957731E-31, 1.000000000000000000, 1.224646799147353454E-16 ) ) ;
#30 = CC_DESIGN_PERSON_AND_ORGANIZATION_ASSIGNMENT ( #75, #20, ( #182 ) ) ;
#31 = ORIENTED_EDGE ( 'NONE', *, *, #199, .T. ) ;
#32 = APPROVAL_PERSON_ORGANIZATION ( #8, #184, #41 ) ;
#33 = DIRECTION ( 'NONE',  ( 0.0000000000000000000, 1.000000000000000000, 0.0000000000000000000 ) ) ;
#34 = ORIENTED_EDGE ( 'NONE', *, *, #161, .T. ) ;
#35 = CARTESIAN_POINT ( 'NONE',  ( 6.954755450716046145E-15, 1.151810781650657851E-15, 1.991921129104597510 ) ) ;
#36 = FACE_BOUND ( 'NONE', #62, .T. ) ;
#37 = DIRECTION ( 'NONE',  ( 0.0000000000000000000, 0.0000000000000000000, 1.000000000000000000 ) ) ;
#38 = CC_DESIGN_PERSON_AND_ORGANIZATION_ASSIGNMENT ( #22, #212, ( #227 ) ) ;
#39 = FACE_OUTER_BOUND ( 'NONE', #64, .T. ) ;
#40 = CIRCLE ( 'NONE', #163, 1.499999999999996891 ) ;
#41 = APPROVAL_ROLE ( '' ) ;
#42 = ORIENTED_EDGE ( 'NONE', *, *, #125, .T. ) ;
#43 = CARTESIAN_POINT ( 'NONE',  ( 0.0000000000000000000, 0.0000000000000000000, 0.0000000000000000000 ) ) ;
#44 = APPROVAL_PERSON_ORGANIZATION ( #132, #165, #74 ) ;
#45 = DIRECTION ( 'NONE',  ( 3.491481338843133355E-15, -1.224646799147353207E-16, 1.000000000000000000 ) ) ;
#46 = ORIENTED_EDGE ( 'NONE', *, *, #225, .F. ) ;
#47 = EDGE_CURVE ( 'NONE', #72, #72, #98, .T. ) ;
#48 = FACE_OUTER_BOUND ( 'NONE', #60, .T. ) ;
#49 = DIRECTION ( 'NONE',  ( 4.355100981429076768E-31, 1.000000000000000000, 1.224646799147353207E-16 ) ) ;
#50 = DIRECTION ( 'NONE',  ( -3.491481338843133355E-15, 1.224646799147353207E-16, -1.000000000000000000 ) ) ;
#51 = CARTESIAN_POINT ( 'NONE',  ( 1.117274028429802674E-14, 0.7500000000000006661, 3.200000000000000178 ) ) ;
#52 = MANIFOLD_SOLID_BREP ( 'Corps-Déplacer/Copier1[2]', #65 ) ;
#53 =( NAMED_UNIT ( * ) SI_UNIT ( $, .STERADIAN. ) SOLID_ANGLE_UNIT ( ) );
#54 = AXIS2_PLACEMENT_3D ( 'NONE', #242, #181, #15 ) ;
#55 = APPROVAL_STATUS ( 'not_yet_approved' ) ;
#56 = AXIS2_PLACEMENT_3D ( 'NONE', #160, #50, #107 ) ;
#57 = CALENDAR_DATE ( 2021, 24, 11 ) ;
#58 = COORDINATED_UNIVERSAL_TIME_OFFSET ( 1, 0, .AHEAD. ) ;
#59 = EDGE_LOOP ( 'NONE', ( #10 ) ) ;
#60 = EDGE_LOOP ( 'NONE', ( #87 ) ) ;
#61 = FACE_OUTER_BOUND ( 'NONE', #219, .T. ) ;
#62 = EDGE_LOOP ( 'NONE', ( #31 ) ) ;
#63 = DIRECTION ( 'NONE',  ( 3.491481338843133355E-15, -1.224646799147353207E-16, 1.000000000000000000 ) ) ;
#64 = EDGE_LOOP ( 'NONE', ( #240 ) ) ;
#65 = CLOSED_SHELL ( 'NONE', ( #197, #173, #172 ) ) ;
#66 = CC_DESIGN_APPROVAL ( #103, ( #218 ) ) ;
#67 = ORIENTED_EDGE ( 'NONE', *, *, #96, .T. ) ;
#68 = ORIENTED_EDGE ( 'NONE', *, *, #96, .F. ) ;
#69 = VERTEX_POINT ( 'NONE', #144 ) ;
#70 = CC_DESIGN_PERSON_AND_ORGANIZATION_ASSIGNMENT ( #207, #149, ( #218 ) ) ;
#71 = LOCAL_TIME ( 7, 51, 36.00000000000000000, #131 ) ;
#72 = VERTEX_POINT ( 'NONE', #143 ) ;
#73 = FACE_OUTER_BOUND ( 'NONE', #12, .T. ) ;
#74 = APPROVAL_ROLE ( '' ) ;
#75 = PERSON_AND_ORGANIZATION ( #188, #84 ) ;
#76 = PRODUCT_DEFINITION_SHAPE ( 'NONE', 'NONE',  #218 ) ;
#77 = APPROVAL_DATE_TIME ( #6, #103 ) ;
#78 = CC_DESIGN_APPROVAL ( #184, ( #182 ) ) ;
#79 = DATE_TIME_ROLE ( 'creation_date' ) ;
#80 = CALENDAR_DATE ( 2021, 24, 11 ) ;
#81 = CC_DESIGN_PERSON_AND_ORGANIZATION_ASSIGNMENT ( #93, #164, ( #123 ) ) ;
#82 = EDGE_LOOP ( 'NONE', ( #175 ) ) ;
#83 = ADVANCED_BREP_SHAPE_REPRESENTATION ( '961225', ( #210, #52, #21 ), #223 ) ;
#84 = ORGANIZATION ( 'UNSPECIFIED', 'UNSPECIFIED', '' ) ;
#85 = CARTESIAN_POINT ( 'NONE',  ( -4.275831445896958716E-32, 1.499759782661857779E-33, -1.224646799147353269E-17 ) ) ;
#86 = PLANE ( 'NONE',  #7 ) ;
#87 = ORIENTED_EDGE ( 'NONE', *, *, #199, .F. ) ;
#88 = FACE_OUTER_BOUND ( 'NONE', #59, .T. ) ;
#89 = AXIS2_PLACEMENT_3D ( 'NONE', #43, #214, #115 ) ;
#90 = CARTESIAN_POINT ( 'NONE',  ( 6.954755450716044568E-15, -2.439399834911926627E-16, 1.991921129104597066 ) ) ;
#91 = FACE_OUTER_BOUND ( 'NONE', #201, .T. ) ;
#92 = CYLINDRICAL_SURFACE ( 'NONE', #150, 1.500000000000000000 ) ;
#93 = PERSON_AND_ORGANIZATION ( #188, #84 ) ;
#94 = DATE_AND_TIME ( #170, #71 ) ;
#95 = LOCAL_TIME ( 7, 51, 36.00000000000000000, #130 ) ;
#96 = EDGE_CURVE ( 'NONE', #17, #17, #236, .T. ) ;
#97 = PERSON_AND_ORGANIZATION_ROLE ( 'design_supplier' ) ;
#98 = CIRCLE ( 'NONE', #166, 1.500000000000003331 ) ;
#99 = AXIS2_PLACEMENT_3D ( 'NONE', #35, #108, #121 ) ;
#100 = DIRECTION ( 'NONE',  ( -3.491481338843133355E-15, 1.224646799147353207E-16, -1.000000000000000000 ) ) ;
#101 = EDGE_LOOP ( 'NONE', ( #232 ) ) ;
#102 = DIRECTION ( 'NONE',  ( -4.275831445896960358E-31, -1.000000000000000000, -1.224646799147352714E-16 ) ) ;
#103 = APPROVAL ( #55, 'UNSPECIFIED' ) ;
#104 = FACE_OUTER_BOUND ( 'NONE', #179, .T. ) ;
#105 = DIRECTION ( 'NONE',  ( 4.275831445896958607E-31, 1.000000000000000000, 1.224646799147353207E-16 ) ) ;
#106 = FACE_OUTER_BOUND ( 'NONE', #135, .T. ) ;
#107 = DIRECTION ( 'NONE',  ( 0.0000000000000000000, 1.000000000000000000, 0.0000000000000000000 ) ) ;
#108 = DIRECTION ( 'NONE',  ( 3.491481338843133355E-15, -1.224646799147353207E-16, 1.000000000000000000 ) ) ;
#109 = PERSON_AND_ORGANIZATION ( #188, #84 ) ;
#110 = APPROVAL_STATUS ( 'not_yet_approved' ) ;
#111 = AXIS2_PLACEMENT_3D ( 'NONE', #200, #27, #105 ) ;
#112 = APPROVAL_PERSON_ORGANIZATION ( #228, #103, #126 ) ;
#113 = ORIENTED_EDGE ( 'NONE', *, *, #161, .F. ) ;
#114 = APPLICATION_CONTEXT ( 'configuration controlled 3d designs of mechanical parts and assemblies' ) ;
#115 = DIRECTION ( 'NONE',  ( 4.275831445896958607E-31, 1.000000000000000000, 1.224646799147353207E-16 ) ) ;
#116 = CIRCLE ( 'NONE', #25, 0.7500000000000000000 ) ;
#117 = EDGE_LOOP ( 'NONE', ( #68 ) ) ;
#118 = FACE_OUTER_BOUND ( 'NONE', #198, .T. ) ;
#119 = PLANE ( 'NONE',  #187 ) ;
#120 =( NAMED_UNIT ( * ) PLANE_ANGLE_UNIT ( ) SI_UNIT ( $, .RADIAN. ) );
#121 = DIRECTION ( 'NONE',  ( -4.275831445896958607E-31, -1.000000000000000000, -1.224646799147353207E-16 ) ) ;
#122 = ADVANCED_FACE ( 'NONE', ( #177, #118 ), #24, .F. ) ;
#123 = PRODUCT ( '961225', '961225', '', ( #19 ) ) ;
#124 = AXIS2_PLACEMENT_3D ( 'NONE', #195, #159, #29 ) ;
#125 = EDGE_CURVE ( 'NONE', #222, #222, #116, .T. ) ;
#126 = APPROVAL_ROLE ( '' ) ;
#127 = PRODUCT_RELATED_PRODUCT_CATEGORY ( 'detail', '', ( #123 ) ) ;
#128 = CALENDAR_DATE ( 2021, 24, 11 ) ;
#129 = APPLICATION_CONTEXT ( 'configuration controlled 3d designs of mechanical parts and assemblies' ) ;
#130 = COORDINATED_UNIVERSAL_TIME_OFFSET ( 1, 0, .AHEAD. ) ;
#131 = COORDINATED_UNIVERSAL_TIME_OFFSET ( 1, 0, .AHEAD. ) ;
#132 = PERSON_AND_ORGANIZATION ( #188, #84 ) ;
#133 = CC_DESIGN_APPROVAL ( #165, ( #227 ) ) ;
#134 = EDGE_CURVE ( 'NONE', #69, #69, #40, .T. ) ;
#135 = EDGE_LOOP ( 'NONE', ( #42 ) ) ;
#136 = CYLINDRICAL_SURFACE ( 'NONE', #89, 0.7500000000000005551 ) ;
#137 = CARTESIAN_POINT ( 'NONE',  ( 6.954755450716046145E-15, 1.151810781650657851E-15, 1.991921129104597510 ) ) ;
#138 = DIRECTION ( 'NONE',  ( -3.491481338843133355E-15, 1.224646799147353207E-16, -1.000000000000000000 ) ) ;
#139 = DIRECTION ( 'NONE',  ( -4.275831445896958607E-31, -1.000000000000000000, -1.224646799147353207E-16 ) ) ;
#140 = CARTESIAN_POINT ( 'NONE',  ( 6.954755450716044568E-15, 0.7499999999999997780, 1.991921129104597066 ) ) ;
#141 = CONICAL_SURFACE ( 'NONE', #153, 0.02499999999999999792, 0.3490658503988666173 ) ;
#142 = VERTEX_POINT ( 'NONE', #206 ) ;
#143 = CARTESIAN_POINT ( 'NONE',  ( 1.316288464743861212E-13, 1.499999999999998668, 37.69999999999999574 ) ) ;
#144 = CARTESIAN_POINT ( 'NONE',  ( 2.298071130742110643E-14, 1.499999999999996225, 6.581937314617161583 ) ) ;
#145 = CARTESIAN_POINT ( 'NONE',  ( -3.206873584422719174E-32, 0.02499999999999999792, -9.184850993605148746E-18 ) ) ;
#146 = SHAPE_DEFINITION_REPRESENTATION ( #76, #83 ) ;
#147 = UNCERTAINTY_MEASURE_WITH_UNIT (LENGTH_MEASURE( 1.000000000000000082E-05 ), #1, 'distance_accuracy_value', 'NONE');
#148 = APPROVAL_STATUS ( 'not_yet_approved' ) ;
#149 = PERSON_AND_ORGANIZATION_ROLE ( 'creator' ) ;
#150 = AXIS2_PLACEMENT_3D ( 'NONE', #203, #243, #226 ) ;
#151 = DATE_AND_TIME ( #209, #4 ) ;
#152 = CC_DESIGN_PERSON_AND_ORGANIZATION_ASSIGNMENT ( #109, #97, ( #227 ) ) ;
#153 = AXIS2_PLACEMENT_3D ( 'NONE', #85, #45, #102 ) ;
#154 = CARTESIAN_POINT ( 'NONE',  ( 2.298071130742110643E-14, -8.060548464534433501E-16, 6.581937314617161583 ) ) ;
#155 = DIRECTION ( 'NONE',  ( -3.491481338843133355E-15, 1.224646799147353207E-16, -1.000000000000000000 ) ) ;
#156 = CARTESIAN_POINT ( 'NONE',  ( -2.137915722948479358E-32, 7.498798913309288894E-34, -6.123233995736766344E-18 ) ) ;
#157 = CARTESIAN_POINT ( 'NONE',  ( 1.326762908760390423E-13, -4.653657836759941941E-15, 38.00000000000000000 ) ) ;
#158 = CIRCLE ( 'NONE', #178, 1.200000000000003286 ) ;
#159 = DIRECTION ( 'NONE',  ( -3.491481338843133355E-15, 1.224646799147353207E-16, -1.000000000000000000 ) ) ;
#160 = CARTESIAN_POINT ( 'NONE',  ( 1.326762908760390423E-13, -4.653657836759941941E-15, 38.00000000000000000 ) ) ;
#161 = EDGE_CURVE ( 'NONE', #2, #2, #171, .T. ) ;
#162 = PLANE ( 'NONE',  #99 ) ;
#163 = AXIS2_PLACEMENT_3D ( 'NONE', #154, #192, #11 ) ;
#164 = PERSON_AND_ORGANIZATION_ROLE ( 'design_owner' ) ;
#165 = APPROVAL ( #148, 'UNSPECIFIED' ) ;
#166 = AXIS2_PLACEMENT_3D ( 'NONE', #202, #213, #33 ) ;
#167 = APPROVAL_DATE_TIME ( #26, #184 ) ;
#168 = ADVANCED_FACE ( 'NONE', ( #48 ), #231, .F. ) ;
#169 = CLOSED_SHELL ( 'NONE', ( #208, #190, #122, #220, #239, #168 ) ) ;
#170 = CALENDAR_DATE ( 2021, 24, 11 ) ;
#171 = CIRCLE ( 'NONE', #216, 0.7500000000000000000 ) ;
#172 = ADVANCED_FACE ( 'NONE', ( #104 ), #119, .T. ) ;
#173 = ADVANCED_FACE ( 'NONE', ( #106, #235 ), #141, .T. ) ;
#174 = EDGE_LOOP ( 'NONE', ( #67 ) ) ;
#175 = ORIENTED_EDGE ( 'NONE', *, *, #134, .T. ) ;
#176 = DIRECTION ( 'NONE',  ( 0.0000000000000000000, 1.000000000000000000, 0.0000000000000000000 ) ) ;
#177 = FACE_OUTER_BOUND ( 'NONE', #82, .T. ) ;
#178 = AXIS2_PLACEMENT_3D ( 'NONE', #157, #238, #204 ) ;
#179 = EDGE_LOOP ( 'NONE', ( #215 ) ) ;
#180 = VERTEX_POINT ( 'NONE', #51 ) ;
#181 = DIRECTION ( 'NONE',  ( -3.491481338843133355E-15, 1.224646799147353207E-16, -1.000000000000000000 ) ) ;
#182 = SECURITY_CLASSIFICATION ( '', '', #230 ) ;
#183 = CARTESIAN_POINT ( 'NONE',  ( 6.954755450716044568E-15, 0.7499999999999997780, 1.991921129104597066 ) ) ;
#184 = APPROVAL ( #110, 'UNSPECIFIED' ) ;
#185 = DIRECTION ( 'NONE',  ( 1.000000000000000000, 0.0000000000000000000, 0.0000000000000000000 ) ) ;
#186 = COORDINATED_UNIVERSAL_TIME_OFFSET ( 1, 0, .AHEAD. ) ;
#187 = AXIS2_PLACEMENT_3D ( 'NONE', #137, #9, #139 ) ;
#188 = PERSON ( 'UNSPECIFIED', 'UNSPECIFIED', 'UNSPECIFIED', ('UNSPECIFIED'), ('UNSPECIFIED'), ('UNSPECIFIED') ) ;
#189 = AXIS2_PLACEMENT_3D ( 'NONE', #221, #155, #49 ) ;
#190 = ADVANCED_FACE ( 'NONE', ( #88, #61 ), #136, .T. ) ;
#191 = APPROVAL_DATE_TIME ( #151, #165 ) ;
#192 = DIRECTION ( 'NONE',  ( -3.491481338843133355E-15, 1.224646799147353207E-16, -1.000000000000000000 ) ) ;
#193 = DESIGN_CONTEXT ( 'detailed design', #114, 'design' ) ;
#194 = CC_DESIGN_SECURITY_CLASSIFICATION ( #182, ( #227 ) ) ;
#195 = CARTESIAN_POINT ( 'NONE',  ( -4.275831445896958716E-32, 1.499759782661857779E-33, -1.224646799147353269E-17 ) ) ;
#196 = ORIENTED_EDGE ( 'NONE', *, *, #47, .T. ) ;
#197 = ADVANCED_FACE ( 'NONE', ( #28 ), #86, .F. ) ;
#198 = EDGE_LOOP ( 'NONE', ( #46 ) ) ;
#199 = EDGE_CURVE ( 'NONE', #142, #142, #158, .T. ) ;
#200 = CARTESIAN_POINT ( 'NONE',  ( 1.326762908760390423E-13, 8.998558695971103225E-33, 38.00000000000000000 ) ) ;
#201 = EDGE_LOOP ( 'NONE', ( #196 ) ) ;
#202 = CARTESIAN_POINT ( 'NONE',  ( 1.316288464743861212E-13, -4.616918432785521081E-15, 37.69999999999999574 ) ) ;
#203 = CARTESIAN_POINT ( 'NONE',  ( 0.0000000000000000000, 0.0000000000000000000, 0.0000000000000000000 ) ) ;
#204 = DIRECTION ( 'NONE',  ( 0.0000000000000000000, 1.000000000000000000, 0.0000000000000000000 ) ) ;
#205 = CARTESIAN_POINT ( 'NONE',  ( 0.0000000000000000000, 0.0000000000000000000, 0.0000000000000000000 ) ) ;
#206 = CARTESIAN_POINT ( 'NONE',  ( 1.326762908760390423E-13, 1.199999999999998845, 38.00000000000000000 ) ) ;
#207 = PERSON_AND_ORGANIZATION ( #188, #84 ) ;
#208 = ADVANCED_FACE ( 'NONE', ( #73 ), #162, .F. ) ;
#209 = CALENDAR_DATE ( 2021, 24, 11 ) ;
#210 = MANIFOLD_SOLID_BREP ( 'Corps-Déplacer/Copier1[1]', #169 ) ;
#211 = CONICAL_SURFACE ( 'NONE', #56, 1.200000000000003286, 0.7853981633974453924 ) ;
#212 = PERSON_AND_ORGANIZATION_ROLE ( 'creator' ) ;
#213 = DIRECTION ( 'NONE',  ( -3.491481338843133355E-15, 1.224646799147353207E-16, -1.000000000000000000 ) ) ;
#214 = DIRECTION ( 'NONE',  ( -3.491481338843133355E-15, 1.224646799147353207E-16, -1.000000000000000000 ) ) ;
#215 = ORIENTED_EDGE ( 'NONE', *, *, #125, .F. ) ;
#216 = AXIS2_PLACEMENT_3D ( 'NONE', #233, #100, #176 ) ;
#217 = DIRECTION ( 'NONE',  ( -4.275831445896958607E-31, -1.000000000000000000, -1.224646799147353207E-16 ) ) ;
#218 = PRODUCT_DEFINITION ( 'UNKNOWN', '', #227, #193 ) ;
#219 = EDGE_LOOP ( 'NONE', ( #113 ) ) ;
#220 = ADVANCED_FACE ( 'NONE', ( #224, #91 ), #92, .T. ) ;
#221 = CARTESIAN_POINT ( 'NONE',  ( 1.117274028429802674E-14, 0.0000000000000000000, 3.200000000000000178 ) ) ;
#222 = VERTEX_POINT ( 'NONE', #183 ) ;
#223 =( GEOMETRIC_REPRESENTATION_CONTEXT ( 3 ) GLOBAL_UNCERTAINTY_ASSIGNED_CONTEXT ( ( #147 ) ) GLOBAL_UNIT_ASSIGNED_CONTEXT ( ( #1, #120, #53 ) ) REPRESENTATION_CONTEXT ( 'NONE', 'WORKASPACE' ) );
#224 = FACE_OUTER_BOUND ( 'NONE', #101, .T. ) ;
#225 = EDGE_CURVE ( 'NONE', #180, #180, #237, .T. ) ;
#226 = DIRECTION ( 'NONE',  ( 4.275831445896959482E-31, 1.000000000000000000, 1.224646799147353207E-16 ) ) ;
#227 = PRODUCT_DEFINITION_FORMATION_WITH_SPECIFIED_SOURCE ( 'ANY', '', #123, .NOT_KNOWN. ) ;
#228 = PERSON_AND_ORGANIZATION ( #188, #84 ) ;
#229 = DATE_TIME_ROLE ( 'classification_date' ) ;
#230 = SECURITY_CLASSIFICATION_LEVEL ( 'unclassified' ) ;
#231 = PLANE ( 'NONE',  #111 ) ;
#232 = ORIENTED_EDGE ( 'NONE', *, *, #134, .F. ) ;
#233 = CARTESIAN_POINT ( 'NONE',  ( 6.954755450716044568E-15, -2.439399834911926627E-16, 1.991921129104597066 ) ) ;
#234 = CC_DESIGN_DATE_AND_TIME_ASSIGNMENT ( #94, #79, ( #218 ) ) ;
#235 = FACE_BOUND ( 'NONE', #117, .T. ) ;
#236 = CIRCLE ( 'NONE', #124, 0.02499999999999999792 ) ;
#237 = CIRCLE ( 'NONE', #54, 0.7500000000000011102 ) ;
#238 = DIRECTION ( 'NONE',  ( -3.491481338843133355E-15, 1.224646799147353207E-16, -1.000000000000000000 ) ) ;
#239 = ADVANCED_FACE ( 'NONE', ( #39, #36 ), #211, .T. ) ;
#240 = ORIENTED_EDGE ( 'NONE', *, *, #47, .F. ) ;
#241 = CC_DESIGN_DATE_AND_TIME_ASSIGNMENT ( #23, #229, ( #182 ) ) ;
#242 = CARTESIAN_POINT ( 'NONE',  ( 1.117274028429802674E-14, -3.918869757271530460E-16, 3.200000000000000178 ) ) ;
#243 = DIRECTION ( 'NONE',  ( -3.491481338843133355E-15, 1.224646799147353207E-16, -1.000000000000000000 ) ) ;
ENDSEC;
END-ISO-10303-21;
