ISO-10303-21;
HEADER;
FILE_DESCRIPTION (( 'STEP AP203' ),
    '1' );
FILE_NAME ('961195.step',
    '2023-09-27T08:31:53',
    ( '' ),
    ( '' ),
    'SwSTEP 2.0',
    'SolidWorks 2022',
    '' );
FILE_SCHEMA (( 'CONFIG_CONTROL_DESIGN' ));
ENDSEC;

DATA;
#1 = DIRECTION ( 'NONE',  ( 1.000000000000000000, 0.000000000000000000, -2.478996079874459657E-15 ) ) ;
#2 = DATE_AND_TIME ( #395, #350 ) ;
#3 = EDGE_LOOP ( 'NONE', ( #107 ) ) ;
#4 = DIRECTION ( 'NONE',  ( 1.000000000000000000, 0.000000000000000000, -3.485915845712887694E-15 ) ) ;
#5 = APPROVAL_STATUS ( 'not_yet_approved' ) ;
#6 = CIRCLE ( 'NONE', #255, 2.765000000000000124 ) ;
#7 = CARTESIAN_POINT ( 'NONE',  ( 2.618611004132350143E-13, 0.000000000000000000, 75.00000000000000000 ) ) ;
#8 = CC_DESIGN_PERSON_AND_ORGANIZATION_ASSIGNMENT ( #191, #245, ( #323 ) ) ;
#9 = CARTESIAN_POINT ( 'NONE',  ( 1.126310647090928995E-13, 0.000000000000000000, 32.25881904510251275 ) ) ;
#10 = EDGE_LOOP ( 'NONE', ( #111 ) ) ;
#11 = CARTESIAN_POINT ( 'NONE',  ( 2.590679153421605076E-13, 0.000000000000000000, 74.20000000000000284 ) ) ;
#12 = PRODUCT_DEFINITION_SHAPE ( 'NONE', 'NONE',  #380 ) ;
#13 = EDGE_CURVE ( 'NONE', #379, #379, #55, .T. ) ;
#14 = CARTESIAN_POINT ( 'NONE',  ( 0.000000000000000000, 0.000000000000000000, 0.000000000000000000 ) ) ;
#15 = LOCAL_TIME ( 10, 31, 53.00000000000000000, #280 ) ;
#16 = DIRECTION ( 'NONE',  ( 1.000000000000000000, 0.000000000000000000, -2.478996079874459657E-15 ) ) ;
#17 = CC_DESIGN_PERSON_AND_ORGANIZATION_ASSIGNMENT ( #277, #217, ( #323 ) ) ;
#18 = AXIS2_PLACEMENT_3D ( 'NONE', #129, #358, #243 ) ;
#19 = ORIENTED_EDGE ( 'NONE', *, *, #263, .F. ) ;
#20 = CARTESIAN_POINT ( 'NONE',  ( 2.799074173711038949, 0.000000000000000000, 32.25881904510250564 ) ) ;
#21 = EDGE_LOOP ( 'NONE', ( #19 ) ) ;
#22 = EDGE_LOOP ( 'NONE', ( #169 ) ) ;
#23 = TOROIDAL_SURFACE ( 'NONE', #34, 3.764999999999996572, 1.000000000000000000 ) ;
#24 = FACE_OUTER_BOUND ( 'NONE', #166, .T. ) ;
#25 = ADVANCED_FACE ( 'NONE', ( #369, #341 ), #371, .T. ) ;
#26 = AXIS2_PLACEMENT_3D ( 'NONE', #149, #339, #360 ) ;
#27 = CALENDAR_DATE ( 2023, 27, 9 ) ;
#28 = EDGE_LOOP ( 'NONE', ( #122 ) ) ;
#29 = PERSON_AND_ORGANIZATION ( #306, #98 ) ;
#30 = AXIS2_PLACEMENT_3D ( 'NONE', #178, #385, #39 ) ;
#31 = ORIENTED_EDGE ( 'NONE', *, *, #219, .T. ) ;
#32 = DIRECTION ( 'NONE',  ( 1.000000000000000000, 0.000000000000000000, -3.513364001978343273E-15 ) ) ;
#33 = CARTESIAN_POINT ( 'NONE',  ( 1.282795914830670798E-13, 0.000000000000000000, 36.74073524493509524 ) ) ;
#34 = AXIS2_PLACEMENT_3D ( 'NONE', #392, #278, #222 ) ;
#35 = FACE_BOUND ( 'NONE', #347, .T. ) ;
#36 = AXIS2_PLACEMENT_3D ( 'NONE', #11, #281, #314 ) ;
#37 = ADVANCED_FACE ( 'NONE', ( #282, #253 ), #62, .T. ) ;
#38 = ORIENTED_EDGE ( 'NONE', *, *, #180, .T. ) ;
#39 = DIRECTION ( 'NONE',  ( 1.000000000000000000, 0.000000000000000000, -3.515600205708449291E-15 ) ) ;
#40 = EDGE_LOOP ( 'NONE', ( #313 ) ) ;
#41 = DIRECTION ( 'NONE',  ( 3.491481338843133355E-15, -0.000000000000000000, 1.000000000000000000 ) ) ;
#42 = DIRECTION ( 'NONE',  ( 3.491481338843133355E-15, -0.000000000000000000, 1.000000000000000000 ) ) ;
#43 = DIRECTION ( 'NONE',  ( 0.000000000000000000, 0.000000000000000000, 1.000000000000000000 ) ) ;
#44 = VERTEX_POINT ( 'NONE', #293 ) ;
#45 = APPLICATION_PROTOCOL_DEFINITION ( 'international standard', 'config_control_design', 1994, #175 ) ;
#46 = CARTESIAN_POINT ( 'NONE',  ( 3.950000000000009059, 0.000000000000000000, 2.312499999999981348 ) ) ;
#47 = AXIS2_PLACEMENT_3D ( 'NONE', #252, #337, #4 ) ;
#48 = APPROVAL_PERSON_ORGANIZATION ( #125, #78, #223 ) ;
#49 = CARTESIAN_POINT ( 'NONE',  ( 1.047444401652940953E-14, 0.000000000000000000, 3.000000000000002665 ) ) ;
#50 = ORIENTED_EDGE ( 'NONE', *, *, #155, .F. ) ;
#51 = DIRECTION ( 'NONE',  ( 1.000000000000000000, 0.000000000000000000, -3.515600205708449291E-15 ) ) ;
#52 = FACE_BOUND ( 'NONE', #28, .T. ) ;
#53 = DATE_TIME_ROLE ( 'creation_date' ) ;
#54 = EDGE_LOOP ( 'NONE', ( #386 ) ) ;
#55 = CIRCLE ( 'NONE', #285, 3.950000000000000178 ) ;
#56 = CYLINDRICAL_SURFACE ( 'NONE', #18, 3.083974596215556918 ) ;
#57 = APPLICATION_PROTOCOL_DEFINITION ( 'international standard', 'config_control_design', 1994, #74 ) ;
#58 = CARTESIAN_POINT ( 'NONE',  ( 2.618611004132350648E-13, 3.199999999999996181, 75.00000000000001421 ) ) ;
#59 = SHAPE_DEFINITION_REPRESENTATION ( #12, #294 ) ;
#60 = APPROVAL_ROLE ( '' ) ;
#61 = ORIENTED_EDGE ( 'NONE', *, *, #13, .T. ) ;
#62 = CYLINDRICAL_SURFACE ( 'NONE', #345, 3.950000000000000178 ) ;
#63 = ADVANCED_FACE ( 'NONE', ( #136, #164 ), #210, .T. ) ;
#64 = EDGE_LOOP ( 'NONE', ( #61 ) ) ;
#65 = CARTESIAN_POINT ( 'NONE',  ( 4.582569257231592807E-15, 0.000000000000000000, 1.312499999999994227 ) ) ;
#66 = CARTESIAN_POINT ( 'NONE',  ( 2.618611004132350143E-13, 0.000000000000000000, 75.00000000000000000 ) ) ;
#67 = EDGE_LOOP ( 'NONE', ( #120 ) ) ;
#68 = DIRECTION ( 'NONE',  ( 1.000000000000000000, 0.000000000000000000, -3.513364001978343273E-15 ) ) ;
#69 = ADVANCED_FACE ( 'NONE', ( #221, #375 ), #229, .T. ) ;
#70 = LOCAL_TIME ( 10, 31, 53.00000000000000000, #130 ) ;
#71 = DESIGN_CONTEXT ( 'detailed design', #74, 'design' ) ;
#72 = DIRECTION ( 'NONE',  ( 3.491481338843133355E-15, -0.000000000000000000, 1.000000000000000000 ) ) ;
#73 = ORIENTED_EDGE ( 'NONE', *, *, #138, .F. ) ;
#74 = APPLICATION_CONTEXT ( 'configuration controlled 3d designs of mechanical parts and assemblies' ) ;
#75 = AXIS2_PLACEMENT_3D ( 'NONE', #173, #373, #95 ) ;
#76 = ADVANCED_FACE ( 'NONE', ( #230 ), #338, .F. ) ;
#77 = DIRECTION ( 'NONE',  ( 1.000000000000000000, 0.000000000000000000, 0.000000000000000000 ) ) ;
#78 = APPROVAL ( #128, 'UNSPECIFIED' ) ;
#79 = DIRECTION ( 'NONE',  ( 3.491481338843133355E-15, -0.000000000000000000, 1.000000000000000000 ) ) ;
#80 = VERTEX_POINT ( 'NONE', #46 ) ;
#81 = AXIS2_PLACEMENT_3D ( 'NONE', #65, #197, #312 ) ;
#82 = LOCAL_TIME ( 10, 31, 53.00000000000000000, #185 ) ;
#83 = FACE_OUTER_BOUND ( 'NONE', #94, .T. ) ;
#84 = PERSON_AND_ORGANIZATION ( #306, #98 ) ;
#85 = CARTESIAN_POINT ( 'NONE',  ( 5.891874759297768604E-15, 0.000000000000000000, 1.687499999999994671 ) ) ;
#86 = CARTESIAN_POINT ( 'NONE',  ( 5.891874759297768604E-15, 0.000000000000000000, 1.687499999999994671 ) ) ;
#87 = DATE_AND_TIME ( #224, #70 ) ;
#88 = CIRCLE ( 'NONE', #220, 3.950000000000001066 ) ;
#89 = CARTESIAN_POINT ( 'NONE',  ( 8.074050596074727740E-15, 0.000000000000000000, 2.312499999999995115 ) ) ;
#90 = DIRECTION ( 'NONE',  ( 1.000000000000000000, 0.000000000000000000, -3.491481338843133355E-15 ) ) ;
#91 = PERSON_AND_ORGANIZATION_ROLE ( 'classification_officer' ) ;
#92 = PERSON_AND_ORGANIZATION_ROLE ( 'creator' ) ;
#93 = VERTEX_POINT ( 'NONE', #320 ) ;
#94 = EDGE_LOOP ( 'NONE', ( #246 ) ) ;
#95 = DIRECTION ( 'NONE',  ( 1.000000000000000000, 0.000000000000000000, -3.491481338843133750E-15 ) ) ;
#96 = DIRECTION ( 'NONE',  ( 3.491481338843133355E-15, -0.000000000000000000, 1.000000000000000000 ) ) ;
#97 = CIRCLE ( 'NONE', #355, 2.799074173710926150 ) ;
#98 = ORGANIZATION ( 'UNSPECIFIED', 'UNSPECIFIED', '' ) ;
#99 = DIRECTION ( 'NONE',  ( -1.000000000000000000, 0.000000000000000000, 3.491481338843133355E-15 ) ) ;
#100 = CC_DESIGN_PERSON_AND_ORGANIZATION_ASSIGNMENT ( #84, #91, ( #394 ) ) ;
#101 = DIRECTION ( 'NONE',  ( -1.000000000000000000, 0.000000000000000000, 3.513364001978342484E-15 ) ) ;
#102 = ORIENTED_EDGE ( 'NONE', *, *, #138, .T. ) ;
#103 = EDGE_CURVE ( 'NONE', #93, #93, #170, .T. ) ;
#104 = DIRECTION ( 'NONE',  ( -3.491481338843133355E-15, 0.000000000000000000, -1.000000000000000000 ) ) ;
#105 = PRODUCT ( '961195', '961195', '', ( #300 ) ) ;
#106 = VERTEX_POINT ( 'NONE', #144 ) ;
#107 = ORIENTED_EDGE ( 'NONE', *, *, #115, .F. ) ;
#108 = APPROVAL ( #5, 'UNSPECIFIED' ) ;
#109 = DIRECTION ( 'NONE',  ( -3.491481338843133355E-15, 0.000000000000000000, -1.000000000000000000 ) ) ;
#110 = AXIS2_PLACEMENT_3D ( 'NONE', #212, #331, #200 ) ;
#111 = ORIENTED_EDGE ( 'NONE', *, *, #250, .T. ) ;
#112 = DIRECTION ( 'NONE',  ( 3.491481338843133355E-15, -0.000000000000000000, 1.000000000000000000 ) ) ;
#113 = EDGE_CURVE ( 'NONE', #106, #106, #388, .T. ) ;
#114 = CARTESIAN_POINT ( 'NONE',  ( 3.083974596215563135, 0.000000000000000000, 1.687499999999983791 ) ) ;
#115 = EDGE_CURVE ( 'NONE', #295, #295, #384, .T. ) ;
#116 = ORIENTED_EDGE ( 'NONE', *, *, #139, .T. ) ;
#117 = ORIENTED_EDGE ( 'NONE', *, *, #184, .F. ) ;
#118 = AXIS2_PLACEMENT_3D ( 'NONE', #66, #226, #311 ) ;
#119 = AXIS2_PLACEMENT_3D ( 'NONE', #86, #157, #152 ) ;
#120 = ORIENTED_EDGE ( 'NONE', *, *, #304, .F. ) ;
#121 = CARTESIAN_POINT ( 'NONE',  ( 4.000000000000128786, 0.000000000000000000, 36.74073524493508103 ) ) ;
#122 = ORIENTED_EDGE ( 'NONE', *, *, #155, .T. ) ;
#123 = PLANE ( 'NONE',  #192 ) ;
#124 = FACE_OUTER_BOUND ( 'NONE', #203, .T. ) ;
#125 = PERSON_AND_ORGANIZATION ( #306, #98 ) ;
#126 =( GEOMETRIC_REPRESENTATION_CONTEXT ( 3 ) GLOBAL_UNCERTAINTY_ASSIGNED_CONTEXT ( ( #163 ) ) GLOBAL_UNIT_ASSIGNED_CONTEXT ( ( #153, #269, #241 ) ) REPRESENTATION_CONTEXT ( 'NONE', 'WORKASPACE' ) );
#127 = FACE_OUTER_BOUND ( 'NONE', #213, .T. ) ;
#128 = APPROVAL_STATUS ( 'not_yet_approved' ) ;
#129 = CARTESIAN_POINT ( 'NONE',  ( 2.618611004132350143E-13, 0.000000000000000000, 75.00000000000000000 ) ) ;
#130 = COORDINATED_UNIVERSAL_TIME_OFFSET ( 1, 0, .AHEAD. ) ;
#131 = EDGE_LOOP ( 'NONE', ( #50 ) ) ;
#132 = EDGE_LOOP ( 'NONE', ( #317 ) ) ;
#133 = APPROVAL_DATE_TIME ( #2, #368 ) ;
#134 = DIRECTION ( 'NONE',  ( -3.491481338843133355E-15, 0.000000000000000000, -1.000000000000000000 ) ) ;
#135 = AXIS2_PLACEMENT_3D ( 'NONE', #378, #96, #346 ) ;
#136 = FACE_BOUND ( 'NONE', #325, .T. ) ;
#137 = CARTESIAN_POINT ( 'NONE',  ( 1.047444401652940953E-14, 0.000000000000000000, 3.000000000000002665 ) ) ;
#138 = EDGE_CURVE ( 'NONE', #235, #235, #357, .T. ) ;
#139 = EDGE_CURVE ( 'NONE', #150, #150, #344, .T. ) ;
#140 = EDGE_LOOP ( 'NONE', ( #117 ) ) ;
#141 = CARTESIAN_POINT ( 'NONE',  ( 2.836828587810024157E-15, 0.000000000000000000, 0.8124999999999937828 ) ) ;
#142 = CIRCLE ( 'NONE', #47, 3.950000000000000178 ) ;
#143 = FACE_BOUND ( 'NONE', #132, .T. ) ;
#144 = CARTESIAN_POINT ( 'NONE',  ( 3.200000000000258193, 0.000000000000000000, 75.00000000000000000 ) ) ;
#145 = ORIENTED_EDGE ( 'NONE', *, *, #263, .T. ) ;
#146 = EDGE_LOOP ( 'NONE', ( #334 ) ) ;
#147 = CIRCLE ( 'NONE', #81, 3.083974596215556918 ) ;
#148 = CARTESIAN_POINT ( 'NONE',  ( 2.765000000000108038, 0.000000000000000000, 31.99999999999999289 ) ) ;
#149 = CARTESIAN_POINT ( 'NONE',  ( 1.117274028429802674E-13, 0.000000000000000000, 32.00000000000000000 ) ) ;
#150 = VERTEX_POINT ( 'NONE', #321 ) ;
#151 = ADVANCED_FACE ( 'NONE', ( #194, #35 ), #171, .T. ) ;
#152 = DIRECTION ( 'NONE',  ( 1.000000000000000000, 0.000000000000000000, -3.515600205708449291E-15 ) ) ;
#153 =( LENGTH_UNIT ( ) NAMED_UNIT ( * ) SI_UNIT ( .MILLI., .METRE. ) );
#154 = DATE_TIME_ROLE ( 'classification_date' ) ;
#155 = EDGE_CURVE ( 'NONE', #324, #324, #97, .T. ) ;
#156 = CIRCLE ( 'NONE', #26, 2.764999999999996128 ) ;
#157 = DIRECTION ( 'NONE',  ( 3.491481338843133355E-15, -0.000000000000000000, 1.000000000000000000 ) ) ;
#158 = APPROVAL_DATE_TIME ( #362, #78 ) ;
#159 = ADVANCED_FACE ( 'NONE', ( #381, #227 ), #177, .T. ) ;
#160 = FACE_OUTER_BOUND ( 'NONE', #40, .T. ) ;
#161 = APPROVAL_PERSON_ORGANIZATION ( #29, #368, #340 ) ;
#162 = AXIS2_PLACEMENT_3D ( 'NONE', #292, #72, #201 ) ;
#163 = UNCERTAINTY_MEASURE_WITH_UNIT (LENGTH_MEASURE( 1.000000000000000082E-05 ), #153, 'distance_accuracy_value', 'NONE');
#164 = FACE_OUTER_BOUND ( 'NONE', #10, .T. ) ;
#165 = FACE_BOUND ( 'NONE', #140, .T. ) ;
#166 = EDGE_LOOP ( 'NONE', ( #116 ) ) ;
#167 = DIRECTION ( 'NONE',  ( 3.491481338843133355E-15, -0.000000000000000000, 1.000000000000000000 ) ) ;
#168 = ADVANCED_FACE ( 'NONE', ( #165, #382 ), #261, .F. ) ;
#169 = ORIENTED_EDGE ( 'NONE', *, *, #103, .T. ) ;
#170 = CIRCLE ( 'NONE', #30, 3.083974596215556918 ) ;
#171 = CONICAL_SURFACE ( 'NONE', #364, 2.759215069796391528, 1.047197551196603849 ) ;
#172 = CC_DESIGN_SECURITY_CLASSIFICATION ( #394, ( #323 ) ) ;
#173 = CARTESIAN_POINT ( 'NONE',  ( 0.000000000000000000, 0.000000000000000000, 0.000000000000000000 ) ) ;
#174 = EDGE_LOOP ( 'NONE', ( #181 ) ) ;
#175 = APPLICATION_CONTEXT ( 'configuration controlled 3d designs of mechanical parts and assemblies' ) ;
#176 = DIRECTION ( 'NONE',  ( 1.000000000000000000, 0.000000000000000000, -3.491481338843133750E-15 ) ) ;
#177 = CONICAL_SURFACE ( 'NONE', #322, 3.950000000000000178, 1.047197551196599852 ) ;
#178 = CARTESIAN_POINT ( 'NONE',  ( 9.819791265496295996E-15, 0.000000000000000000, 2.812499999999995559 ) ) ;
#179 = EDGE_CURVE ( 'NONE', #208, #208, #147, .T. ) ;
#180 = EDGE_CURVE ( 'NONE', #204, #204, #234, .T. ) ;
#181 = ORIENTED_EDGE ( 'NONE', *, *, #225, .T. ) ;
#182 = DIRECTION ( 'NONE',  ( 3.491481338843133355E-15, -0.000000000000000000, 1.000000000000000000 ) ) ;
#183 = CARTESIAN_POINT ( 'NONE',  ( 3.083974596215567132, 0.000000000000000000, 2.999999999999992006 ) ) ;
#184 = EDGE_CURVE ( 'NONE', #44, #44, #6, .T. ) ;
#185 = COORDINATED_UNIVERSAL_TIME_OFFSET ( 1, 0, .AHEAD. ) ;
#186 = COORDINATED_UNIVERSAL_TIME_OFFSET ( 1, 0, .AHEAD. ) ;
#187 = CIRCLE ( 'NONE', #286, 3.083974596215556918 ) ;
#188 = COORDINATED_UNIVERSAL_TIME_OFFSET ( 1, 0, .AHEAD. ) ;
#189 = FACE_OUTER_BOUND ( 'NONE', #351, .T. ) ;
#190 = DATE_AND_TIME ( #249, #15 ) ;
#191 = PERSON_AND_ORGANIZATION ( #306, #98 ) ;
#192 = AXIS2_PLACEMENT_3D ( 'NONE', #329, #254, #90 ) ;
#193 = CARTESIAN_POINT ( 'NONE',  ( 2.618611004132350143E-13, 0.000000000000000000, 75.00000000000000000 ) ) ;
#194 = FACE_OUTER_BOUND ( 'NONE', #21, .T. ) ;
#195 = EDGE_LOOP ( 'NONE', ( #288 ) ) ;
#196 = ADVANCED_FACE ( 'NONE', ( #143, #24 ), #389, .T. ) ;
#197 = DIRECTION ( 'NONE',  ( 3.491481338843133355E-15, -0.000000000000000000, 1.000000000000000000 ) ) ;
#198 = EDGE_LOOP ( 'NONE', ( #73 ) ) ;
#199 = AXIS2_PLACEMENT_3D ( 'NONE', #272, #79, #1 ) ;
#200 = DIRECTION ( 'NONE',  ( 1.000000000000000000, 0.000000000000000000, -3.513364001978343273E-15 ) ) ;
#201 = DIRECTION ( 'NONE',  ( 1.000000000000000000, 0.000000000000000000, -4.336808689942023258E-15 ) ) ;
#202 = CARTESIAN_POINT ( 'NONE',  ( 0.000000000000000000, 0.000000000000000000, 0.000000000000000000 ) ) ;
#203 = EDGE_LOOP ( 'NONE', ( #145 ) ) ;
#204 = VERTEX_POINT ( 'NONE', #121 ) ;
#205 = CARTESIAN_POINT ( 'NONE',  ( 2.759215069796391528, 0.000000000000000000, -9.633747926048855636E-15 ) ) ;
#206 = AXIS2_PLACEMENT_3D ( 'NONE', #33, #167, #284 ) ;
#207 = FACE_OUTER_BOUND ( 'NONE', #131, .T. ) ;
#208 = VERTEX_POINT ( 'NONE', #387 ) ;
#209 = CC_DESIGN_APPROVAL ( #108, ( #380 ) ) ;
#210 = CONICAL_SURFACE ( 'NONE', #336, 3.950000000000001066, 1.047197551196600074 ) ;
#211 = DIRECTION ( 'NONE',  ( 1.000000000000000000, 0.000000000000000000, -3.515600205708449291E-15 ) ) ;
#212 = CARTESIAN_POINT ( 'NONE',  ( 2.618611004132350143E-13, 0.000000000000000000, 75.00000000000000000 ) ) ;
#213 = EDGE_LOOP ( 'NONE', ( #31 ) ) ;
#214 = FACE_OUTER_BOUND ( 'NONE', #273, .T. ) ;
#215 = FACE_OUTER_BOUND ( 'NONE', #307, .T. ) ;
#216 = DIRECTION ( 'NONE',  ( 3.491481338843133355E-15, -0.000000000000000000, 1.000000000000000000 ) ) ;
#217 = PERSON_AND_ORGANIZATION_ROLE ( 'creator' ) ;
#218 = CONICAL_SURFACE ( 'NONE', #383, 3.083974596215556918, 1.047197551196599630 ) ;
#219 = EDGE_CURVE ( 'NONE', #354, #354, #156, .T. ) ;
#220 = AXIS2_PLACEMENT_3D ( 'NONE', #240, #305, #356 ) ;
#221 = FACE_OUTER_BOUND ( 'NONE', #195, .T. ) ;
#222 = DIRECTION ( 'NONE',  ( 1.000000000000000000, 0.000000000000000000, -3.491481338843133355E-15 ) ) ;
#223 = APPROVAL_ROLE ( '' ) ;
#224 = CALENDAR_DATE ( 2023, 27, 9 ) ;
#225 = EDGE_CURVE ( 'NONE', #326, #326, #262, .T. ) ;
#226 = DIRECTION ( 'NONE',  ( 3.491481338843133355E-15, -0.000000000000000000, 1.000000000000000000 ) ) ;
#227 = FACE_OUTER_BOUND ( 'NONE', #64, .T. ) ;
#228 = CC_DESIGN_APPROVAL ( #368, ( #394 ) ) ;
#229 = CYLINDRICAL_SURFACE ( 'NONE', #135, 3.999999999999997335 ) ;
#230 = FACE_OUTER_BOUND ( 'NONE', #146, .T. ) ;
#231 = ORIENTED_EDGE ( 'NONE', *, *, #304, .T. ) ;
#232 = MANIFOLD_SOLID_BREP ( 'Corps-Déplacer/Copier1', #238 ) ;
#233 = EDGE_LOOP ( 'NONE', ( #330 ) ) ;
#234 = CIRCLE ( 'NONE', #206, 4.000000000000000000 ) ;
#235 = VERTEX_POINT ( 'NONE', #205 ) ;
#236 = VERTEX_POINT ( 'NONE', #239 ) ;
#237 = EDGE_LOOP ( 'NONE', ( #283 ) ) ;
#238 = CLOSED_SHELL ( 'NONE', ( #271, #151, #372, #159, #270, #242, #37, #63, #25, #168, #367, #260, #251, #69, #196, #76 ) ) ;
#239 = CARTESIAN_POINT ( 'NONE',  ( 3.950000000000002842, 0.000000000000000000, 0.6874999999999799050 ) ) ;
#240 = CARTESIAN_POINT ( 'NONE',  ( 8.074050596074727740E-15, 0.000000000000000000, 2.312499999999995115 ) ) ;
#241 =( NAMED_UNIT ( * ) SI_UNIT ( $, .STERADIAN. ) SOLID_ANGLE_UNIT ( ) );
#242 = ADVANCED_FACE ( 'NONE', ( #332, #274 ), #218, .T. ) ;
#243 = DIRECTION ( 'NONE',  ( 1.000000000000000000, 0.000000000000000000, -4.499968263306815724E-15 ) ) ;
#244 = CYLINDRICAL_SURFACE ( 'NONE', #110, 3.950000000000000178 ) ;
#245 = PERSON_AND_ORGANIZATION_ROLE ( 'design_supplier' ) ;
#246 = ORIENTED_EDGE ( 'NONE', *, *, #179, .T. ) ;
#247 = ORIENTED_EDGE ( 'NONE', *, *, #250, .F. ) ;
#248 = CARTESIAN_POINT ( 'NONE',  ( 2.590679153421605076E-13, 0.000000000000000000, 74.20000000000000284 ) ) ;
#249 = CALENDAR_DATE ( 2023, 27, 9 ) ;
#250 = EDGE_CURVE ( 'NONE', #80, #80, #88, .T. ) ;
#251 = ADVANCED_FACE ( 'NONE', ( #214, #52 ), #315, .T. ) ;
#252 = CARTESIAN_POINT ( 'NONE',  ( 2.400393420454632094E-15, 0.000000000000000000, 0.6874999999999936717 ) ) ;
#253 = FACE_OUTER_BOUND ( 'NONE', #54, .T. ) ;
#254 = DIRECTION ( 'NONE',  ( 3.491481338843133355E-15, -0.000000000000000000, 1.000000000000000000 ) ) ;
#255 = AXIS2_PLACEMENT_3D ( 'NONE', #137, #112, #268 ) ;
#256 = DIRECTION ( 'NONE',  ( 3.491481338843133355E-15, -0.000000000000000000, 1.000000000000000000 ) ) ;
#257 = PERSON_AND_ORGANIZATION_ROLE ( 'design_owner' ) ;
#258 = DIRECTION ( 'NONE',  ( 1.000000000000000000, 0.000000000000000000, -3.485915845712887694E-15 ) ) ;
#259 = ORIENTED_EDGE ( 'NONE', *, *, #225, .F. ) ;
#260 = ADVANCED_FACE ( 'NONE', ( #207, #127 ), #23, .F. ) ;
#261 = PLANE ( 'NONE',  #349 ) ;
#262 = CIRCLE ( 'NONE', #119, 3.083974596215556918 ) ;
#263 = EDGE_CURVE ( 'NONE', #236, #236, #142, .T. ) ;
#264 = DIRECTION ( 'NONE',  ( -1.000000000000000000, 0.000000000000000000, 3.485915845712887694E-15 ) ) ;
#265 = AXIS2_PLACEMENT_3D ( 'NONE', #7, #216, #308 ) ;
#266 = ORIENTED_EDGE ( 'NONE', *, *, #184, .T. ) ;
#267 = ORIENTED_EDGE ( 'NONE', *, *, #103, .F. ) ;
#268 = DIRECTION ( 'NONE',  ( 1.000000000000000000, 0.000000000000000000, -3.450625359085872984E-15 ) ) ;
#269 =( NAMED_UNIT ( * ) PLANE_ANGLE_UNIT ( ) SI_UNIT ( $, .RADIAN. ) );
#270 = ADVANCED_FACE ( 'NONE', ( #215, #83 ), #56, .T. ) ;
#271 = ADVANCED_FACE ( 'NONE', ( #299 ), #123, .F. ) ;
#272 = CARTESIAN_POINT ( 'NONE',  ( 1.126310647090928995E-13, 0.000000000000000000, 32.25881904510251275 ) ) ;
#273 = EDGE_LOOP ( 'NONE', ( #353 ) ) ;
#274 = FACE_BOUND ( 'NONE', #174, .T. ) ;
#275 = AXIS2_PLACEMENT_3D ( 'NONE', #202, #43, #77 ) ;
#276 = DIRECTION ( 'NONE',  ( 3.491481338843133355E-15, -0.000000000000000000, 1.000000000000000000 ) ) ;
#277 = PERSON_AND_ORGANIZATION ( #306, #98 ) ;
#278 = DIRECTION ( 'NONE',  ( 3.491481338843133355E-15, -0.000000000000000000, 1.000000000000000000 ) ) ;
#279 = CALENDAR_DATE ( 2023, 27, 9 ) ;
#280 = COORDINATED_UNIVERSAL_TIME_OFFSET ( 1, 0, .AHEAD. ) ;
#281 = DIRECTION ( 'NONE',  ( 3.491481338843133355E-15, -0.000000000000000000, 1.000000000000000000 ) ) ;
#282 = FACE_OUTER_BOUND ( 'NONE', #289, .T. ) ;
#283 = ORIENTED_EDGE ( 'NONE', *, *, #219, .F. ) ;
#284 = DIRECTION ( 'NONE',  ( 1.000000000000000000, 0.000000000000000000, -3.469446951953614189E-15 ) ) ;
#285 = AXIS2_PLACEMENT_3D ( 'NONE', #342, #256, #258 ) ;
#286 = AXIS2_PLACEMENT_3D ( 'NONE', #49, #182, #211 ) ;
#287 = CC_DESIGN_DATE_AND_TIME_ASSIGNMENT ( #87, #53, ( #380 ) ) ;
#288 = ORIENTED_EDGE ( 'NONE', *, *, #139, .F. ) ;
#289 = EDGE_LOOP ( 'NONE', ( #247 ) ) ;
#290 = CC_DESIGN_PERSON_AND_ORGANIZATION_ASSIGNMENT ( #309, #92, ( #380 ) ) ;
#291 = CC_DESIGN_DATE_AND_TIME_ASSIGNMENT ( #190, #154, ( #394 ) ) ;
#292 = CARTESIAN_POINT ( 'NONE',  ( 2.618611004132350648E-13, 0.000000000000000000, 75.00000000000001421 ) ) ;
#293 = CARTESIAN_POINT ( 'NONE',  ( 2.765000000000010338, 0.000000000000000000, 2.999999999999993339 ) ) ;
#294 = ADVANCED_BREP_SHAPE_REPRESENTATION ( '961195', ( #232, #275 ), #126 ) ;
#295 = VERTEX_POINT ( 'NONE', #298 ) ;
#296 = CC_DESIGN_APPROVAL ( #78, ( #323 ) ) ;
#297 = PRODUCT_RELATED_PRODUCT_CATEGORY ( 'detail', '', ( #105 ) ) ;
#298 = CARTESIAN_POINT ( 'NONE',  ( 3.950000000000008171, 0.000000000000000000, 2.187499999999981348 ) ) ;
#299 = FACE_OUTER_BOUND ( 'NONE', #198, .T. ) ;
#300 = MECHANICAL_CONTEXT ( 'NONE', #175, 'mechanical' ) ;
#301 = FACE_OUTER_BOUND ( 'NONE', #237, .T. ) ;
#302 = DIRECTION ( 'NONE',  ( -3.491481338843133355E-15, 0.000000000000000000, -1.000000000000000000 ) ) ;
#303 = PERSON_AND_ORGANIZATION ( #306, #98 ) ;
#304 = EDGE_CURVE ( 'NONE', #391, #391, #187, .T. ) ;
#305 = DIRECTION ( 'NONE',  ( 3.491481338843133355E-15, -0.000000000000000000, 1.000000000000000000 ) ) ;
#306 = PERSON ( 'UNSPECIFIED', 'UNSPECIFIED', 'UNSPECIFIED', ('UNSPECIFIED'), ('UNSPECIFIED'), ('UNSPECIFIED') ) ;
#307 = EDGE_LOOP ( 'NONE', ( #259 ) ) ;
#308 = DIRECTION ( 'NONE',  ( 1.000000000000000000, 0.000000000000000000, -5.019091431397636515E-15 ) ) ;
#309 = PERSON_AND_ORGANIZATION ( #306, #98 ) ;
#310 = DIRECTION ( 'NONE',  ( 3.491481338843133355E-15, -0.000000000000000000, 1.000000000000000000 ) ) ;
#311 = DIRECTION ( 'NONE',  ( 1.000000000000000000, 0.000000000000000000, -4.499968263306815724E-15 ) ) ;
#312 = DIRECTION ( 'NONE',  ( 1.000000000000000000, 0.000000000000000000, -3.515600205708449291E-15 ) ) ;
#313 = ORIENTED_EDGE ( 'NONE', *, *, #13, .F. ) ;
#314 = DIRECTION ( 'NONE',  ( 1.000000000000000000, 0.000000000000000000, -3.469446951953618922E-15 ) ) ;
#315 = CONICAL_SURFACE ( 'NONE', #199, 2.799074173710926150, 0.2617993877991425244 ) ;
#316 = EDGE_LOOP ( 'NONE', ( #231 ) ) ;
#317 = ORIENTED_EDGE ( 'NONE', *, *, #113, .F. ) ;
#318 = AXIS2_PLACEMENT_3D ( 'NONE', #58, #104, #352 ) ;
#319 = CARTESIAN_POINT ( 'NONE',  ( 7.637615428719337649E-15, 0.000000000000000000, 2.187499999999995115 ) ) ;
#320 = CARTESIAN_POINT ( 'NONE',  ( 3.083974596215567132, 0.000000000000000000, 2.812499999999984901 ) ) ;
#321 = CARTESIAN_POINT ( 'NONE',  ( 4.000000000000254019, 0.000000000000000000, 74.19999999999998863 ) ) ;
#322 = AXIS2_PLACEMENT_3D ( 'NONE', #141, #343, #264 ) ;
#323 = PRODUCT_DEFINITION_FORMATION_WITH_SPECIFIED_SOURCE ( 'ANY', '', #105, .NOT_KNOWN. ) ;
#324 = VERTEX_POINT ( 'NONE', #20 ) ;
#325 = EDGE_LOOP ( 'NONE', ( #267 ) ) ;
#326 = VERTEX_POINT ( 'NONE', #114 ) ;
#327 = AXIS2_PLACEMENT_3D ( 'NONE', #248, #302, #390 ) ;
#328 = LOCAL_TIME ( 10, 31, 53.00000000000000000, #186 ) ;
#329 = CARTESIAN_POINT ( 'NONE',  ( -1.401279055578015115E-32, 0.000000000000000000, -4.013422726877052267E-18 ) ) ;
#330 = ORIENTED_EDGE ( 'NONE', *, *, #179, .F. ) ;
#331 = DIRECTION ( 'NONE',  ( 3.491481338843133355E-15, -0.000000000000000000, 1.000000000000000000 ) ) ;
#332 = FACE_OUTER_BOUND ( 'NONE', #3, .T. ) ;
#333 = PERSON_AND_ORGANIZATION ( #306, #98 ) ;
#334 = ORIENTED_EDGE ( 'NONE', *, *, #113, .T. ) ;
#335 = CC_DESIGN_PERSON_AND_ORGANIZATION_ASSIGNMENT ( #333, #257, ( #105 ) ) ;
#336 = AXIS2_PLACEMENT_3D ( 'NONE', #89, #134, #101 ) ;
#337 = DIRECTION ( 'NONE',  ( 3.491481338843133355E-15, -0.000000000000000000, 1.000000000000000000 ) ) ;
#338 = PLANE ( 'NONE',  #318 ) ;
#339 = DIRECTION ( 'NONE',  ( 3.491481338843133355E-15, -0.000000000000000000, 1.000000000000000000 ) ) ;
#340 = APPROVAL_ROLE ( '' ) ;
#341 = FACE_OUTER_BOUND ( 'NONE', #22, .T. ) ;
#342 = CARTESIAN_POINT ( 'NONE',  ( 2.836828587810024157E-15, 0.000000000000000000, 0.8124999999999937828 ) ) ;
#343 = DIRECTION ( 'NONE',  ( -3.491481338843133355E-15, 0.000000000000000000, -1.000000000000000000 ) ) ;
#344 = CIRCLE ( 'NONE', #36, 3.999999999999994671 ) ;
#345 = AXIS2_PLACEMENT_3D ( 'NONE', #193, #363, #32 ) ;
#346 = DIRECTION ( 'NONE',  ( 1.000000000000000000, 0.000000000000000000, -3.469446951953616555E-15 ) ) ;
#347 = EDGE_LOOP ( 'NONE', ( #102 ) ) ;
#348 = CARTESIAN_POINT ( 'NONE',  ( 3.950000000000002842, 0.000000000000000000, 0.8124999999999800160 ) ) ;
#349 = AXIS2_PLACEMENT_3D ( 'NONE', #376, #109, #99 ) ;
#350 = LOCAL_TIME ( 10, 31, 53.00000000000000000, #188 ) ;
#351 = EDGE_LOOP ( 'NONE', ( #266 ) ) ;
#352 = DIRECTION ( 'NONE',  ( -1.000000000000000000, 0.000000000000000000, 3.491481338843133355E-15 ) ) ;
#353 = ORIENTED_EDGE ( 'NONE', *, *, #180, .F. ) ;
#354 = VERTEX_POINT ( 'NONE', #148 ) ;
#355 = AXIS2_PLACEMENT_3D ( 'NONE', #9, #310, #16 ) ;
#356 = DIRECTION ( 'NONE',  ( 1.000000000000000000, 0.000000000000000000, -3.513364001978342484E-15 ) ) ;
#357 = CIRCLE ( 'NONE', #75, 2.759215069796391528 ) ;
#358 = DIRECTION ( 'NONE',  ( 3.491481338843133355E-15, -0.000000000000000000, 1.000000000000000000 ) ) ;
#359 = SECURITY_CLASSIFICATION_LEVEL ( 'unclassified' ) ;
#360 = DIRECTION ( 'NONE',  ( 1.000000000000000000, 0.000000000000000000, -2.509545715698820230E-15 ) ) ;
#361 = CYLINDRICAL_SURFACE ( 'NONE', #265, 2.764999999999998348 ) ;
#362 = DATE_AND_TIME ( #27, #328 ) ;
#363 = DIRECTION ( 'NONE',  ( 3.491481338843133355E-15, -0.000000000000000000, 1.000000000000000000 ) ) ;
#364 = AXIS2_PLACEMENT_3D ( 'NONE', #14, #41, #176 ) ;
#365 = APPROVAL_PERSON_ORGANIZATION ( #303, #108, #60 ) ;
#366 = APPROVAL_STATUS ( 'not_yet_approved' ) ;
#367 = ADVANCED_FACE ( 'NONE', ( #301, #189 ), #361, .T. ) ;
#368 = APPROVAL ( #366, 'UNSPECIFIED' ) ;
#369 = FACE_OUTER_BOUND ( 'NONE', #67, .T. ) ;
#370 = APPROVAL_DATE_TIME ( #393, #108 ) ;
#371 = CYLINDRICAL_SURFACE ( 'NONE', #118, 3.083974596215556918 ) ;
#372 = ADVANCED_FACE ( 'NONE', ( #160, #124 ), #244, .T. ) ;
#373 = DIRECTION ( 'NONE',  ( 3.491481338843133355E-15, -0.000000000000000000, 1.000000000000000000 ) ) ;
#374 = EDGE_LOOP ( 'NONE', ( #38 ) ) ;
#375 = FACE_OUTER_BOUND ( 'NONE', #374, .T. ) ;
#376 = CARTESIAN_POINT ( 'NONE',  ( 1.047444401652940007E-14, 3.083974596215556918, 3.000000000000000000 ) ) ;
#377 = AXIS2_PLACEMENT_3D ( 'NONE', #319, #42, #68 ) ;
#378 = CARTESIAN_POINT ( 'NONE',  ( 2.618611004132350143E-13, 0.000000000000000000, 75.00000000000000000 ) ) ;
#379 = VERTEX_POINT ( 'NONE', #348 ) ;
#380 = PRODUCT_DEFINITION ( 'UNKNOWN', '', #323, #71 ) ;
#381 = FACE_BOUND ( 'NONE', #233, .T. ) ;
#382 = FACE_OUTER_BOUND ( 'NONE', #316, .T. ) ;
#383 = AXIS2_PLACEMENT_3D ( 'NONE', #85, #276, #51 ) ;
#384 = CIRCLE ( 'NONE', #377, 3.950000000000000178 ) ;
#385 = DIRECTION ( 'NONE',  ( 3.491481338843133355E-15, -0.000000000000000000, 1.000000000000000000 ) ) ;
#386 = ORIENTED_EDGE ( 'NONE', *, *, #115, .T. ) ;
#387 = CARTESIAN_POINT ( 'NONE',  ( 3.083974596215561359, 0.000000000000000000, 1.312499999999983347 ) ) ;
#388 = CIRCLE ( 'NONE', #162, 3.199999999999996181 ) ;
#389 = CONICAL_SURFACE ( 'NONE', #327, 3.999999999999994671, 0.7853981633974418397 ) ;
#390 = DIRECTION ( 'NONE',  ( -1.000000000000000000, 0.000000000000000000, 3.469446951953618922E-15 ) ) ;
#391 = VERTEX_POINT ( 'NONE', #183 ) ;
#392 = CARTESIAN_POINT ( 'NONE',  ( 1.117274028429802674E-13, 0.000000000000000000, 32.00000000000000000 ) ) ;
#393 = DATE_AND_TIME ( #279, #82 ) ;
#394 = SECURITY_CLASSIFICATION ( '', '', #359 ) ;
#395 = CALENDAR_DATE ( 2023, 27, 9 ) ;
ENDSEC;
END-ISO-10303-21;
