ISO-10303-21;
HEADER;
FILE_DESCRIPTION (( 'STEP AP203' ),
    '1' );
FILE_NAME ('961194.step',
    '2023-09-27T08:31:52',
    ( '' ),
    ( '' ),
    'SwSTEP 2.0',
    'SolidWorks 2022',
    '' );
FILE_SCHEMA (( 'CONFIG_CONTROL_DESIGN' ));
ENDSEC;

DATA;
#1 = ORIENTED_EDGE ( 'NONE', *, *, #173, .T. ) ;
#2 = EDGE_LOOP ( 'NONE', ( #365 ) ) ;
#3 = CIRCLE ( 'NONE', #379, 3.254999999999999893 ) ;
#4 = CC_DESIGN_PERSON_AND_ORGANIZATION_ASSIGNMENT ( #58, #210, ( #206 ) ) ;
#5 = ORIENTED_EDGE ( 'NONE', *, *, #111, .T. ) ;
#6 = PLANE ( 'NONE',  #131 ) ;
#7 = CYLINDRICAL_SURFACE ( 'NONE', #12, 2.264999999999998792 ) ;
#8 = PRODUCT_DEFINITION_SHAPE ( 'NONE', 'NONE',  #83 ) ;
#9 = DIRECTION ( 'NONE',  ( -3.491481338843133355E-15, 0.000000000000000000, -1.000000000000000000 ) ) ;
#10 = ADVANCED_FACE ( 'NONE', ( #190, #217 ), #61, .T. ) ;
#11 = EDGE_LOOP ( 'NONE', ( #307 ) ) ;
#12 = AXIS2_PLACEMENT_3D ( 'NONE', #128, #250, #368 ) ;
#13 = ORIENTED_EDGE ( 'NONE', *, *, #153, .F. ) ;
#14 = DIRECTION ( 'NONE',  ( 1.000000000000000000, 0.000000000000000000, -3.469446951953616555E-15 ) ) ;
#15 = CONICAL_SURFACE ( 'NONE', #117, 2.533312163512963622, 1.047197551196604515 ) ;
#16 = CARTESIAN_POINT ( 'NONE',  ( 6.728375496728940835E-15, 0.000000000000000000, 1.927083333333329263 ) ) ;
#17 = CARTESIAN_POINT ( 'NONE',  ( 2.590679153421605076E-13, 0.000000000000000000, 74.20000000000000284 ) ) ;
#18 = CC_DESIGN_PERSON_AND_ORGANIZATION_ASSIGNMENT ( #294, #92, ( #206 ) ) ;
#19 = PERSON ( 'UNSPECIFIED', 'UNSPECIFIED', 'UNSPECIFIED', ('UNSPECIFIED'), ('UNSPECIFIED'), ('UNSPECIFIED') ) ;
#20 = CARTESIAN_POINT ( 'NONE',  ( 9.028558414049684603E-14, 0.000000000000000000, 25.85881904510251772 ) ) ;
#21 = AXIS2_PLACEMENT_3D ( 'NONE', #16, #9, #378 ) ;
#22 = DIRECTION ( 'NONE',  ( 3.491481338843133355E-15, -0.000000000000000000, 1.000000000000000000 ) ) ;
#23 = DIRECTION ( 'NONE',  ( 1.000000000000000000, 0.000000000000000000, 0.000000000000000000 ) ) ;
#24 = DIRECTION ( 'NONE',  ( 3.491481338843133355E-15, -0.000000000000000000, 1.000000000000000000 ) ) ;
#25 = CALENDAR_DATE ( 2023, 27, 9 ) ;
#26 = DIRECTION ( 'NONE',  ( 3.491481338843133355E-15, -0.000000000000000000, 1.000000000000000000 ) ) ;
#27 = APPROVAL_ROLE ( '' ) ;
#28 = DIRECTION ( 'NONE',  ( 3.491481338843133355E-15, -0.000000000000000000, 1.000000000000000000 ) ) ;
#29 = APPLICATION_CONTEXT ( 'configuration controlled 3d designs of mechanical parts and assemblies' ) ;
#30 = EDGE_CURVE ( 'NONE', #119, #119, #317, .T. ) ;
#31 = CARTESIAN_POINT ( 'NONE',  ( 4.000000000000254019, 0.000000000000000000, 74.19999999999998863 ) ) ;
#32 = SHAPE_DEFINITION_REPRESENTATION ( #8, #352 ) ;
#33 = VERTEX_POINT ( 'NONE', #358 ) ;
#34 = EDGE_LOOP ( 'NONE', ( #1 ) ) ;
#35 = EDGE_LOOP ( 'NONE', ( #312 ) ) ;
#36 =( NAMED_UNIT ( * ) SI_UNIT ( $, .STERADIAN. ) SOLID_ANGLE_UNIT ( ) );
#37 = CARTESIAN_POINT ( 'NONE',  ( 9.028558414049684603E-14, 0.000000000000000000, 25.85881904510251772 ) ) ;
#38 = AXIS2_PLACEMENT_3D ( 'NONE', #313, #44, #280 ) ;
#39 = FACE_OUTER_BOUND ( 'NONE', #132, .T. ) ;
#40 = FACE_OUTER_BOUND ( 'NONE', #2, .T. ) ;
#41 = FACE_OUTER_BOUND ( 'NONE', #162, .T. ) ;
#42 = DIRECTION ( 'NONE',  ( 1.000000000000000000, 0.000000000000000000, -3.018125288540468148E-15 ) ) ;
#43 = ORIENTED_EDGE ( 'NONE', *, *, #218, .F. ) ;
#44 = DIRECTION ( 'NONE',  ( 3.491481338843133355E-15, -0.000000000000000000, 1.000000000000000000 ) ) ;
#45 = LOCAL_TIME ( 10, 31, 52.00000000000000000, #393 ) ;
#46 = CARTESIAN_POINT ( 'NONE',  ( 6.728375496728940835E-15, 0.000000000000000000, 1.927083333333329263 ) ) ;
#47 = ADVANCED_FACE ( 'NONE', ( #40, #277 ), #7, .T. ) ;
#48 = DIRECTION ( 'NONE',  ( 3.491481338843133355E-15, -0.000000000000000000, 1.000000000000000000 ) ) ;
#49 = FACE_OUTER_BOUND ( 'NONE', #196, .T. ) ;
#50 = DIRECTION ( 'NONE',  ( 3.491481338843133355E-15, -0.000000000000000000, 1.000000000000000000 ) ) ;
#51 = CIRCLE ( 'NONE', #171, 2.533312163512963622 ) ;
#52 = CARTESIAN_POINT ( 'NONE',  ( 2.618611004132350648E-13, 3.199999999999996181, 75.00000000000001421 ) ) ;
#53 = PERSON_AND_ORGANIZATION_ROLE ( 'classification_officer' ) ;
#54 = FACE_OUTER_BOUND ( 'NONE', #163, .T. ) ;
#55 = COORDINATED_UNIVERSAL_TIME_OFFSET ( 1, 0, .AHEAD. ) ;
#56 = CYLINDRICAL_SURFACE ( 'NONE', #95, 3.254999999999999893 ) ;
#57 = LOCAL_TIME ( 10, 31, 52.00000000000000000, #55 ) ;
#58 = PERSON_AND_ORGANIZATION ( #19, #332 ) ;
#59 = COORDINATED_UNIVERSAL_TIME_OFFSET ( 1, 0, .AHEAD. ) ;
#60 = CARTESIAN_POINT ( 'NONE',  ( 2.533312163512968507, 0.000000000000000000, 1.406249999999988898 ) ) ;
#61 = CONICAL_SURFACE ( 'NONE', #209, 2.299074173710926594, 0.2617993877991431906 ) ;
#62 = EDGE_LOOP ( 'NONE', ( #97 ) ) ;
#63 = ORIENTED_EDGE ( 'NONE', *, *, #193, .T. ) ;
#64 = ORIENTED_EDGE ( 'NONE', *, *, #153, .T. ) ;
#65 = EDGE_CURVE ( 'NONE', #351, #351, #282, .T. ) ;
#66 = AXIS2_PLACEMENT_3D ( 'NONE', #194, #308, #167 ) ;
#67 = DIRECTION ( 'NONE',  ( 1.000000000000000000, 0.000000000000000000, -3.423824945385436635E-15 ) ) ;
#68 = EDGE_LOOP ( 'NONE', ( #122 ) ) ;
#69 = DIRECTION ( 'NONE',  ( -1.000000000000000000, 0.000000000000000000, 3.497426362856466107E-15 ) ) ;
#70 = EDGE_LOOP ( 'NONE', ( #64 ) ) ;
#71 = ORIENTED_EDGE ( 'NONE', *, *, #65, .F. ) ;
#72 = FACE_OUTER_BOUND ( 'NONE', #221, .T. ) ;
#73 = ADVANCED_FACE ( 'NONE', ( #309, #146 ), #321, .T. ) ;
#74 = EDGE_LOOP ( 'NONE', ( #43 ) ) ;
#75 = CARTESIAN_POINT ( 'NONE',  ( 2.618611004132350143E-13, 0.000000000000000000, 75.00000000000000000 ) ) ;
#76 = DESIGN_CONTEXT ( 'detailed design', #168, 'design' ) ;
#77 = DIRECTION ( 'NONE',  ( -1.000000000000000000, 0.000000000000000000, 3.469446951953618922E-15 ) ) ;
#78 = DIRECTION ( 'NONE',  ( 1.000000000000000000, 0.000000000000000000, -3.509420569020072679E-15 ) ) ;
#79 = DATE_TIME_ROLE ( 'creation_date' ) ;
#80 = CIRCLE ( 'NONE', #347, 2.262679224830326241 ) ;
#81 = CARTESIAN_POINT ( 'NONE',  ( 1.124493037895917524E-13, 0.000000000000000000, 32.20676064871957323 ) ) ;
#82 =( NAMED_UNIT ( * ) PLANE_ANGLE_UNIT ( ) SI_UNIT ( $, .RADIAN. ) );
#83 = PRODUCT_DEFINITION ( 'UNKNOWN', '', #206, #76 ) ;
#84 = CARTESIAN_POINT ( 'NONE',  ( 3.818807714359692490E-15, 0.000000000000000000, 1.093750000000004441 ) ) ;
#85 = UNCERTAINTY_MEASURE_WITH_UNIT (LENGTH_MEASURE( 1.000000000000000082E-05 ), #145, 'distance_accuracy_value', 'NONE');
#86 = COORDINATED_UNIVERSAL_TIME_OFFSET ( 1, 0, .AHEAD. ) ;
#87 = CARTESIAN_POINT ( 'NONE',  ( 2.533312163512972059, 0.000000000000000000, 2.343749999999996891 ) ) ;
#88 = APPROVAL_ROLE ( '' ) ;
#89 = CC_DESIGN_DATE_AND_TIME_ASSIGNMENT ( #324, #79, ( #83 ) ) ;
#90 = TOROIDAL_SURFACE ( 'NONE', #355, 3.264999999999997016, 1.000000000000000666 ) ;
#91 = CIRCLE ( 'NONE', #121, 4.000000000000000000 ) ;
#92 = PERSON_AND_ORGANIZATION_ROLE ( 'creator' ) ;
#93 = VERTEX_POINT ( 'NONE', #394 ) ;
#94 = EDGE_LOOP ( 'NONE', ( #303 ) ) ;
#95 = AXIS2_PLACEMENT_3D ( 'NONE', #291, #22, #169 ) ;
#96 = ORIENTED_EDGE ( 'NONE', *, *, #284, .T. ) ;
#97 = ORIENTED_EDGE ( 'NONE', *, *, #238, .F. ) ;
#98 = CONICAL_SURFACE ( 'NONE', #334, 2.262679224830326241, 1.047197551196594967 ) ;
#99 = CC_DESIGN_PERSON_AND_ORGANIZATION_ASSIGNMENT ( #320, #53, ( #158 ) ) ;
#100 = CARTESIAN_POINT ( 'NONE',  ( 2.618611004132350143E-13, 0.000000000000000000, 75.00000000000000000 ) ) ;
#101 = EDGE_LOOP ( 'NONE', ( #242 ) ) ;
#102 = ADVANCED_FACE ( 'NONE', ( #306, #310 ), #253, .T. ) ;
#103 = FACE_BOUND ( 'NONE', #62, .T. ) ;
#104 = PRODUCT ( '961194', '961194', '', ( #389 ) ) ;
#105 = CARTESIAN_POINT ( 'NONE',  ( 0.000000000000000000, 0.000000000000000000, 0.000000000000000000 ) ) ;
#106 = ADVANCED_FACE ( 'NONE', ( #367, #336 ), #98, .T. ) ;
#107 = CC_DESIGN_SECURITY_CLASSIFICATION ( #158, ( #206 ) ) ;
#108 = EDGE_LOOP ( 'NONE', ( #192 ) ) ;
#109 = FACE_OUTER_BOUND ( 'NONE', #101, .T. ) ;
#110 = DIRECTION ( 'NONE',  ( 3.491481338843133355E-15, -0.000000000000000000, 1.000000000000000000 ) ) ;
#111 = EDGE_CURVE ( 'NONE', #205, #205, #300, .T. ) ;
#112 = PERSON_AND_ORGANIZATION_ROLE ( 'design_owner' ) ;
#113 = DIRECTION ( 'NONE',  ( 3.491481338843133355E-15, -0.000000000000000000, 1.000000000000000000 ) ) ;
#114 = CC_DESIGN_PERSON_AND_ORGANIZATION_ASSIGNMENT ( #391, #112, ( #104 ) ) ;
#115 = DIRECTION ( 'NONE',  ( 1.000000000000000000, 0.000000000000000000, -5.478119912616698932E-15 ) ) ;
#116 = AXIS2_PLACEMENT_3D ( 'NONE', #20, #142, #260 ) ;
#117 = AXIS2_PLACEMENT_3D ( 'NONE', #144, #28, #178 ) ;
#118 = PERSON_AND_ORGANIZATION ( #19, #332 ) ;
#119 = VERTEX_POINT ( 'NONE', #235 ) ;
#120 = FACE_OUTER_BOUND ( 'NONE', #254, .T. ) ;
#121 = AXIS2_PLACEMENT_3D ( 'NONE', #81, #382, #266 ) ;
#122 = ORIENTED_EDGE ( 'NONE', *, *, #165, .F. ) ;
#123 = ORIENTED_EDGE ( 'NONE', *, *, #179, .T. ) ;
#124 = VERTEX_POINT ( 'NONE', #245 ) ;
#125 = EDGE_LOOP ( 'NONE', ( #157 ) ) ;
#126 = DIRECTION ( 'NONE',  ( 1.000000000000000000, 0.000000000000000000, -3.469446951953618922E-15 ) ) ;
#127 = DIRECTION ( 'NONE',  ( 3.491481338843133355E-15, -0.000000000000000000, 1.000000000000000000 ) ) ;
#128 = CARTESIAN_POINT ( 'NONE',  ( 2.618611004132350143E-13, 0.000000000000000000, 75.00000000000000000 ) ) ;
#129 = DIRECTION ( 'NONE',  ( -3.491481338843133355E-15, 0.000000000000000000, -1.000000000000000000 ) ) ;
#130 = ORIENTED_EDGE ( 'NONE', *, *, #30, .F. ) ;
#131 = AXIS2_PLACEMENT_3D ( 'NONE', #251, #191, #369 ) ;
#132 = EDGE_LOOP ( 'NONE', ( #155 ) ) ;
#133 = DIRECTION ( 'NONE',  ( 1.000000000000000000, 0.000000000000000000, -3.491481338843133355E-15 ) ) ;
#134 = ADVANCED_FACE ( 'NONE', ( #39, #109 ), #372, .T. ) ;
#135 = CARTESIAN_POINT ( 'NONE',  ( 2.590679153421605076E-13, 0.000000000000000000, 74.20000000000000284 ) ) ;
#136 = ADVANCED_FACE ( 'NONE', ( #226, #72 ), #388, .T. ) ;
#137 = CARTESIAN_POINT ( 'NONE',  ( 2.618611004132350143E-13, 0.000000000000000000, 75.00000000000000000 ) ) ;
#138 = DIRECTION ( 'NONE',  ( 1.000000000000000000, 0.000000000000000000, -5.478119912616698932E-15 ) ) ;
#139 = LOCAL_TIME ( 10, 31, 52.00000000000000000, #86 ) ;
#140 = FACE_OUTER_BOUND ( 'NONE', #34, .T. ) ;
#141 = CLOSED_SHELL ( 'NONE', ( #156, #106, #134, #152, #181, #241, #256, #102, #265, #240, #47, #361, #10, #73, #136, #213 ) ) ;
#142 = DIRECTION ( 'NONE',  ( 3.491481338843133355E-15, -0.000000000000000000, 1.000000000000000000 ) ) ;
#143 = SECURITY_CLASSIFICATION_LEVEL ( 'unclassified' ) ;
#144 = CARTESIAN_POINT ( 'NONE',  ( 4.909895632748147998E-15, 0.000000000000000000, 1.406249999999997780 ) ) ;
#145 =( LENGTH_UNIT ( ) NAMED_UNIT ( * ) SI_UNIT ( .MILLI., .METRE. ) );
#146 = FACE_OUTER_BOUND ( 'NONE', #94, .T. ) ;
#147 = APPLICATION_PROTOCOL_DEFINITION ( 'international standard', 'config_control_design', 1994, #168 ) ;
#148 = LOCAL_TIME ( 10, 31, 52.00000000000000000, #150 ) ;
#149 = DIRECTION ( 'NONE',  ( 1.000000000000000000, 0.000000000000000000, -3.491481338843133355E-15 ) ) ;
#150 = COORDINATED_UNIVERSAL_TIME_OFFSET ( 1, 0, .AHEAD. ) ;
#151 = DIRECTION ( 'NONE',  ( 3.491481338843133355E-15, -0.000000000000000000, 1.000000000000000000 ) ) ;
#152 = ADVANCED_FACE ( 'NONE', ( #103, #41 ), #252, .T. ) ;
#153 = EDGE_CURVE ( 'NONE', #124, #124, #395, .T. ) ;
#154 = AXIS2_PLACEMENT_3D ( 'NONE', #263, #24, #390 ) ;
#155 = ORIENTED_EDGE ( 'NONE', *, *, #267, .F. ) ;
#156 = ADVANCED_FACE ( 'NONE', ( #333 ), #6, .F. ) ;
#157 = ORIENTED_EDGE ( 'NONE', *, *, #238, .T. ) ;
#158 = SECURITY_CLASSIFICATION ( '', '', #143 ) ;
#159 = AXIS2_PLACEMENT_3D ( 'NONE', #161, #129, #69 ) ;
#160 = DIRECTION ( 'NONE',  ( 3.491481338843133355E-15, -0.000000000000000000, 1.000000000000000000 ) ) ;
#161 = CARTESIAN_POINT ( 'NONE',  ( 2.364023823175020197E-15, 0.000000000000000000, 0.6770833333333281523 ) ) ;
#162 = EDGE_LOOP ( 'NONE', ( #371 ) ) ;
#163 = EDGE_LOOP ( 'NONE', ( #301 ) ) ;
#164 = DIRECTION ( 'NONE',  ( 1.000000000000000000, 0.000000000000000000, -3.464117540353071286E-15 ) ) ;
#165 = EDGE_CURVE ( 'NONE', #207, #207, #297, .T. ) ;
#166 = CIRCLE ( 'NONE', #38, 2.533312163512963622 ) ;
#167 = DIRECTION ( 'NONE',  ( 1.000000000000000000, 0.000000000000000000, -3.464117540353071286E-15 ) ) ;
#168 = APPLICATION_CONTEXT ( 'configuration controlled 3d designs of mechanical parts and assemblies' ) ;
#169 = DIRECTION ( 'NONE',  ( 1.000000000000000000, 0.000000000000000000, -4.263529280434548971E-15 ) ) ;
#170 = DIRECTION ( 'NONE',  ( 3.491481338843133355E-15, -0.000000000000000000, 1.000000000000000000 ) ) ;
#171 = AXIS2_PLACEMENT_3D ( 'NONE', #84, #170, #78 ) ;
#172 = FACE_OUTER_BOUND ( 'NONE', #246, .T. ) ;
#173 = EDGE_CURVE ( 'NONE', #93, #93, #380, .T. ) ;
#174 = APPROVAL_STATUS ( 'not_yet_approved' ) ;
#175 = DIRECTION ( 'NONE',  ( -3.491481338843133355E-15, 0.000000000000000000, -1.000000000000000000 ) ) ;
#176 = CARTESIAN_POINT ( 'NONE',  ( 2.265000000000008562, 0.000000000000000000, 2.499999999999994227 ) ) ;
#177 = DATE_AND_TIME ( #236, #57 ) ;
#178 = DIRECTION ( 'NONE',  ( 1.000000000000000000, 0.000000000000000000, -3.509420569020072679E-15 ) ) ;
#179 = EDGE_CURVE ( 'NONE', #364, #364, #166, .T. ) ;
#180 = MANIFOLD_SOLID_BREP ( 'Corps-Déplacer/Copier1', #141 ) ;
#181 = ADVANCED_FACE ( 'NONE', ( #255, #257 ), #376, .T. ) ;
#182 = PERSON_AND_ORGANIZATION ( #19, #332 ) ;
#183 = CARTESIAN_POINT ( 'NONE',  ( 2.265000000000086278, 0.000000000000000000, 25.59999999999999076 ) ) ;
#184 = AXIS2_PLACEMENT_3D ( 'NONE', #392, #110, #293 ) ;
#185 = VERTEX_POINT ( 'NONE', #183 ) ;
#186 = VERTEX_POINT ( 'NONE', #302 ) ;
#187 = ORIENTED_EDGE ( 'NONE', *, *, #248, .T. ) ;
#188 = APPROVAL_PERSON_ORGANIZATION ( #231, #283, #345 ) ;
#189 = AXIS2_PLACEMENT_3D ( 'NONE', #137, #374, #14 ) ;
#190 = FACE_OUTER_BOUND ( 'NONE', #74, .T. ) ;
#191 = DIRECTION ( 'NONE',  ( 3.491481338843133355E-15, -0.000000000000000000, 1.000000000000000000 ) ) ;
#192 = ORIENTED_EDGE ( 'NONE', *, *, #65, .T. ) ;
#193 = EDGE_CURVE ( 'NONE', #185, #185, #258, .T. ) ;
#194 = CARTESIAN_POINT ( 'NONE',  ( 6.364679523932772170E-15, 0.000000000000000000, 1.822916666666660301 ) ) ;
#195 = ORIENTED_EDGE ( 'NONE', *, *, #248, .F. ) ;
#196 = EDGE_LOOP ( 'NONE', ( #13 ) ) ;
#197 = LOCAL_TIME ( 10, 31, 52.00000000000000000, #59 ) ;
#198 = ORIENTED_EDGE ( 'NONE', *, *, #284, .F. ) ;
#199 = DIRECTION ( 'NONE',  ( 3.491481338843133355E-15, -0.000000000000000000, 1.000000000000000000 ) ) ;
#200 = CYLINDRICAL_SURFACE ( 'NONE', #311, 2.533312163512963622 ) ;
#201 = DATE_AND_TIME ( #25, #148 ) ;
#202 = DIRECTION ( 'NONE',  ( -1.000000000000000000, 0.000000000000000000, 3.491481338843133355E-15 ) ) ;
#203 = FACE_OUTER_BOUND ( 'NONE', #108, .T. ) ;
#204 = CALENDAR_DATE ( 2023, 27, 9 ) ;
#205 = VERTEX_POINT ( 'NONE', #325 ) ;
#206 = PRODUCT_DEFINITION_FORMATION_WITH_SPECIFIED_SOURCE ( 'ANY', '', #104, .NOT_KNOWN. ) ;
#207 = VERTEX_POINT ( 'NONE', #31 ) ;
#208 = VERTEX_POINT ( 'NONE', #287 ) ;
#209 = AXIS2_PLACEMENT_3D ( 'NONE', #37, #335, #42 ) ;
#210 = PERSON_AND_ORGANIZATION_ROLE ( 'design_supplier' ) ;
#211 = VERTEX_POINT ( 'NONE', #298 ) ;
#212 = CC_DESIGN_APPROVAL ( #283, ( #206 ) ) ;
#213 = ADVANCED_FACE ( 'NONE', ( #120 ), #381, .F. ) ;
#214 =( GEOMETRIC_REPRESENTATION_CONTEXT ( 3 ) GLOBAL_UNCERTAINTY_ASSIGNED_CONTEXT ( ( #85 ) ) GLOBAL_UNIT_ASSIGNED_CONTEXT ( ( #145, #82, #36 ) ) REPRESENTATION_CONTEXT ( 'NONE', 'WORKASPACE' ) );
#215 = AXIS2_PLACEMENT_3D ( 'NONE', #75, #199, #138 ) ;
#216 = EDGE_LOOP ( 'NONE', ( #5 ) ) ;
#217 = FACE_BOUND ( 'NONE', #339, .T. ) ;
#218 = EDGE_CURVE ( 'NONE', #296, #296, #91, .T. ) ;
#219 = CARTESIAN_POINT ( 'NONE',  ( 2.618611004132350648E-13, 0.000000000000000000, 75.00000000000001421 ) ) ;
#220 = AXIS2_PLACEMENT_3D ( 'NONE', #46, #275, #164 ) ;
#221 = EDGE_LOOP ( 'NONE', ( #331 ) ) ;
#222 = DIRECTION ( 'NONE',  ( 3.491481338843133355E-15, -0.000000000000000000, 1.000000000000000000 ) ) ;
#223 = EDGE_LOOP ( 'NONE', ( #270 ) ) ;
#224 = CARTESIAN_POINT ( 'NONE',  ( 8.728703347107841277E-15, 0.000000000000000000, 2.500000000000002220 ) ) ;
#225 = APPROVAL_PERSON_ORGANIZATION ( #118, #326, #27 ) ;
#226 = FACE_BOUND ( 'NONE', #370, .T. ) ;
#227 = CARTESIAN_POINT ( 'NONE',  ( 2.618611004132350143E-13, 0.000000000000000000, 75.00000000000000000 ) ) ;
#228 = CALENDAR_DATE ( 2023, 27, 9 ) ;
#229 = DIRECTION ( 'NONE',  ( 1.000000000000000000, 0.000000000000000000, -3.497426362856466107E-15 ) ) ;
#230 = AXIS2_PLACEMENT_3D ( 'NONE', #135, #222, #126 ) ;
#231 = PERSON_AND_ORGANIZATION ( #19, #332 ) ;
#232 = DIRECTION ( 'NONE',  ( 1.000000000000000000, 0.000000000000000000, -3.063529317398338736E-15 ) ) ;
#233 = AXIS2_PLACEMENT_3D ( 'NONE', #52, #175, #289 ) ;
#234 = APPROVAL_DATE_TIME ( #353, #326 ) ;
#235 = CARTESIAN_POINT ( 'NONE',  ( 3.200000000000258193, 0.000000000000000000, 75.00000000000000000 ) ) ;
#236 = CALENDAR_DATE ( 2023, 27, 9 ) ;
#237 = FACE_BOUND ( 'NONE', #271, .T. ) ;
#238 = EDGE_CURVE ( 'NONE', #211, #211, #51, .T. ) ;
#239 = PERSON_AND_ORGANIZATION_ROLE ( 'creator' ) ;
#240 = ADVANCED_FACE ( 'NONE', ( #237, #354 ), #262, .F. ) ;
#241 = ADVANCED_FACE ( 'NONE', ( #54, #323 ), #15, .T. ) ;
#242 = ORIENTED_EDGE ( 'NONE', *, *, #299, .T. ) ;
#243 = VERTEX_POINT ( 'NONE', #329 ) ;
#244 = EDGE_LOOP ( 'NONE', ( #123 ) ) ;
#245 = CARTESIAN_POINT ( 'NONE',  ( 3.255000000000006999, 0.000000000000000000, 1.927083333333317938 ) ) ;
#246 = EDGE_LOOP ( 'NONE', ( #63 ) ) ;
#247 = CARTESIAN_POINT ( 'NONE',  ( 8.938192227438421390E-14, 0.000000000000000000, 25.59999999999999787 ) ) ;
#248 = EDGE_CURVE ( 'NONE', #33, #33, #80, .T. ) ;
#249 = VERTEX_POINT ( 'NONE', #176 ) ;
#250 = DIRECTION ( 'NONE',  ( 3.491481338843133355E-15, -0.000000000000000000, 1.000000000000000000 ) ) ;
#251 = CARTESIAN_POINT ( 'NONE',  ( 7.601350728047904925E-33, 0.000000000000000000, 2.177113376915981335E-18 ) ) ;
#252 = CONICAL_SURFACE ( 'NONE', #159, 3.254999999999999893, 1.047197551196590082 ) ;
#253 = CONICAL_SURFACE ( 'NONE', #21, 3.254999999999999893, 1.047197551196590082 ) ;
#254 = EDGE_LOOP ( 'NONE', ( #279 ) ) ;
#255 = FACE_OUTER_BOUND ( 'NONE', #223, .T. ) ;
#256 = ADVANCED_FACE ( 'NONE', ( #49, #140 ), #56, .T. ) ;
#257 = FACE_OUTER_BOUND ( 'NONE', #125, .T. ) ;
#258 = CIRCLE ( 'NONE', #288, 2.264999999999997016 ) ;
#259 = DIRECTION ( 'NONE',  ( 3.491481338843133355E-15, -0.000000000000000000, 1.000000000000000000 ) ) ;
#260 = DIRECTION ( 'NONE',  ( 1.000000000000000000, 0.000000000000000000, -3.018125288540468148E-15 ) ) ;
#261 = APPROVAL_DATE_TIME ( #318, #283 ) ;
#262 = PLANE ( 'NONE',  #269 ) ;
#263 = CARTESIAN_POINT ( 'NONE',  ( 8.728703347107841277E-15, 0.000000000000000000, 2.500000000000002220 ) ) ;
#264 = CIRCLE ( 'NONE', #184, 3.254999999999999893 ) ;
#265 = ADVANCED_FACE ( 'NONE', ( #285, #203 ), #200, .T. ) ;
#266 = DIRECTION ( 'NONE',  ( 1.000000000000000000, 0.000000000000000000, -3.469446951953614189E-15 ) ) ;
#267 = EDGE_CURVE ( 'NONE', #243, #243, #264, .T. ) ;
#268 = CARTESIAN_POINT ( 'NONE',  ( 4.000000000000112799, 0.000000000000000000, 32.20676064871955901 ) ) ;
#269 = AXIS2_PLACEMENT_3D ( 'NONE', #344, #315, #202 ) ;
#270 = ORIENTED_EDGE ( 'NONE', *, *, #179, .F. ) ;
#271 = EDGE_LOOP ( 'NONE', ( #337 ) ) ;
#272 = APPROVAL_PERSON_ORGANIZATION ( #295, #384, #88 ) ;
#273 = APPLICATION_PROTOCOL_DEFINITION ( 'international standard', 'config_control_design', 1994, #29 ) ;
#274 = EDGE_LOOP ( 'NONE', ( #198 ) ) ;
#275 = DIRECTION ( 'NONE',  ( 3.491481338843133355E-15, -0.000000000000000000, 1.000000000000000000 ) ) ;
#276 = CARTESIAN_POINT ( 'NONE',  ( 8.183159387913613129E-15, 0.000000000000000000, 2.343750000000005329 ) ) ;
#277 = FACE_OUTER_BOUND ( 'NONE', #35, .T. ) ;
#278 = DIRECTION ( 'NONE',  ( 3.491481338843133355E-15, -0.000000000000000000, 1.000000000000000000 ) ) ;
#279 = ORIENTED_EDGE ( 'NONE', *, *, #30, .T. ) ;
#280 = DIRECTION ( 'NONE',  ( 1.000000000000000000, 0.000000000000000000, -3.509420569020072679E-15 ) ) ;
#281 = AXIS2_PLACEMENT_3D ( 'NONE', #224, #48, #67 ) ;
#282 = CIRCLE ( 'NONE', #327, 2.533312163512963622 ) ;
#283 = APPROVAL ( #356, 'UNSPECIFIED' ) ;
#284 = EDGE_CURVE ( 'NONE', #186, #186, #341, .T. ) ;
#285 = FACE_OUTER_BOUND ( 'NONE', #330, .T. ) ;
#286 = CC_DESIGN_DATE_AND_TIME_ASSIGNMENT ( #177, #349, ( #158 ) ) ;
#287 = CARTESIAN_POINT ( 'NONE',  ( 3.255000000000002114, 0.000000000000000000, 0.5729166666666615226 ) ) ;
#288 = AXIS2_PLACEMENT_3D ( 'NONE', #247, #259, #232 ) ;
#289 = DIRECTION ( 'NONE',  ( -1.000000000000000000, 0.000000000000000000, 3.491481338843133355E-15 ) ) ;
#290 = CARTESIAN_POINT ( 'NONE',  ( 8.938192227438421390E-14, 0.000000000000000000, 25.60000000000000142 ) ) ;
#291 = CARTESIAN_POINT ( 'NONE',  ( 2.618611004132350143E-13, 0.000000000000000000, 75.00000000000000000 ) ) ;
#292 = CALENDAR_DATE ( 2023, 27, 9 ) ;
#293 = DIRECTION ( 'NONE',  ( 1.000000000000000000, 0.000000000000000000, -3.497426362856466107E-15 ) ) ;
#294 = PERSON_AND_ORGANIZATION ( #19, #332 ) ;
#295 = PERSON_AND_ORGANIZATION ( #19, #332 ) ;
#296 = VERTEX_POINT ( 'NONE', #268 ) ;
#297 = CIRCLE ( 'NONE', #230, 3.999999999999994671 ) ;
#298 = CARTESIAN_POINT ( 'NONE',  ( 2.533312163512967619, 0.000000000000000000, 1.093749999999995559 ) ) ;
#299 = EDGE_CURVE ( 'NONE', #208, #208, #3, .T. ) ;
#300 = CIRCLE ( 'NONE', #281, 2.533312163512963622 ) ;
#301 = ORIENTED_EDGE ( 'NONE', *, *, #173, .F. ) ;
#302 = CARTESIAN_POINT ( 'NONE',  ( 2.299074173711016744, 0.000000000000000000, 25.85881904510251061 ) ) ;
#303 = ORIENTED_EDGE ( 'NONE', *, *, #218, .T. ) ;
#304 = CC_DESIGN_APPROVAL ( #326, ( #83 ) ) ;
#305 = DIRECTION ( 'NONE',  ( 1.000000000000000000, 0.000000000000000000, -4.336808689942023258E-15 ) ) ;
#306 = FACE_BOUND ( 'NONE', #359, .T. ) ;
#307 = ORIENTED_EDGE ( 'NONE', *, *, #299, .F. ) ;
#308 = DIRECTION ( 'NONE',  ( 3.491481338843133355E-15, -0.000000000000000000, 1.000000000000000000 ) ) ;
#309 = FACE_OUTER_BOUND ( 'NONE', #68, .T. ) ;
#310 = FACE_OUTER_BOUND ( 'NONE', #70, .T. ) ;
#311 = AXIS2_PLACEMENT_3D ( 'NONE', #227, #50, #115 ) ;
#312 = ORIENTED_EDGE ( 'NONE', *, *, #366, .T. ) ;
#313 = CARTESIAN_POINT ( 'NONE',  ( 4.909895632748147998E-15, 0.000000000000000000, 1.406249999999997780 ) ) ;
#314 = DIRECTION ( 'NONE',  ( 1.000000000000000000, 0.000000000000000000, -3.491481338843133355E-15 ) ) ;
#315 = DIRECTION ( 'NONE',  ( -3.491481338843133355E-15, 0.000000000000000000, -1.000000000000000000 ) ) ;
#316 = AXIS2_PLACEMENT_3D ( 'NONE', #375, #322, #23 ) ;
#317 = CIRCLE ( 'NONE', #357, 3.199999999999996181 ) ;
#318 = DATE_AND_TIME ( #204, #139 ) ;
#319 = FACE_OUTER_BOUND ( 'NONE', #274, .T. ) ;
#320 = PERSON_AND_ORGANIZATION ( #19, #332 ) ;
#321 = CYLINDRICAL_SURFACE ( 'NONE', #189, 3.999999999999997335 ) ;
#322 = DIRECTION ( 'NONE',  ( 0.000000000000000000, 0.000000000000000000, 1.000000000000000000 ) ) ;
#323 = FACE_BOUND ( 'NONE', #244, .T. ) ;
#324 = DATE_AND_TIME ( #228, #45 ) ;
#325 = CARTESIAN_POINT ( 'NONE',  ( 2.533312163512972504, 0.000000000000000000, 2.499999999999993339 ) ) ;
#326 = APPROVAL ( #350, 'UNSPECIFIED' ) ;
#327 = AXIS2_PLACEMENT_3D ( 'NONE', #276, #127, #343 ) ;
#328 = ORIENTED_EDGE ( 'NONE', *, *, #111, .F. ) ;
#329 = CARTESIAN_POINT ( 'NONE',  ( 3.255000000000002114, 0.000000000000000000, 0.6770833333333167170 ) ) ;
#330 = EDGE_LOOP ( 'NONE', ( #328 ) ) ;
#331 = ORIENTED_EDGE ( 'NONE', *, *, #165, .T. ) ;
#332 = ORGANIZATION ( 'UNSPECIFIED', 'UNSPECIFIED', '' ) ;
#333 = FACE_OUTER_BOUND ( 'NONE', #377, .T. ) ;
#334 = AXIS2_PLACEMENT_3D ( 'NONE', #105, #338, #133 ) ;
#335 = DIRECTION ( 'NONE',  ( 3.491481338843133355E-15, -0.000000000000000000, 1.000000000000000000 ) ) ;
#336 = FACE_BOUND ( 'NONE', #363, .T. ) ;
#337 = ORIENTED_EDGE ( 'NONE', *, *, #366, .F. ) ;
#338 = DIRECTION ( 'NONE',  ( 3.491481338843133355E-15, -0.000000000000000000, 1.000000000000000000 ) ) ;
#339 = EDGE_LOOP ( 'NONE', ( #96 ) ) ;
#340 = DIRECTION ( 'NONE',  ( -3.491481338843133355E-15, 0.000000000000000000, -1.000000000000000000 ) ) ;
#341 = CIRCLE ( 'NONE', #116, 2.299074173710926594 ) ;
#342 = DIRECTION ( 'NONE',  ( 1.000000000000000000, 0.000000000000000000, -4.263529280434548971E-15 ) ) ;
#343 = DIRECTION ( 'NONE',  ( 1.000000000000000000, 0.000000000000000000, -3.423824945385436635E-15 ) ) ;
#344 = CARTESIAN_POINT ( 'NONE',  ( 8.728703347107831810E-15, 2.533312163512963622, 2.499999999999999556 ) ) ;
#345 = APPROVAL_ROLE ( '' ) ;
#346 = CARTESIAN_POINT ( 'NONE',  ( 0.000000000000000000, 0.000000000000000000, 0.000000000000000000 ) ) ;
#347 = AXIS2_PLACEMENT_3D ( 'NONE', #346, #151, #314 ) ;
#348 = AXIS2_PLACEMENT_3D ( 'NONE', #100, #278, #342 ) ;
#349 = DATE_TIME_ROLE ( 'classification_date' ) ;
#350 = APPROVAL_STATUS ( 'not_yet_approved' ) ;
#351 = VERTEX_POINT ( 'NONE', #87 ) ;
#352 = ADVANCED_BREP_SHAPE_REPRESENTATION ( '961194', ( #180, #316 ), #214 ) ;
#353 = DATE_AND_TIME ( #292, #197 ) ;
#354 = FACE_OUTER_BOUND ( 'NONE', #216, .T. ) ;
#355 = AXIS2_PLACEMENT_3D ( 'NONE', #290, #26, #149 ) ;
#356 = APPROVAL_STATUS ( 'not_yet_approved' ) ;
#357 = AXIS2_PLACEMENT_3D ( 'NONE', #219, #160, #305 ) ;
#358 = CARTESIAN_POINT ( 'NONE',  ( 2.262679224830326241, 0.000000000000000000, -7.900102289283130843E-15 ) ) ;
#359 = EDGE_LOOP ( 'NONE', ( #71 ) ) ;
#360 = CC_DESIGN_APPROVAL ( #384, ( #158 ) ) ;
#361 = ADVANCED_FACE ( 'NONE', ( #319, #172 ), #90, .F. ) ;
#362 = PRODUCT_RELATED_PRODUCT_CATEGORY ( 'detail', '', ( #104 ) ) ;
#363 = EDGE_LOOP ( 'NONE', ( #187 ) ) ;
#364 = VERTEX_POINT ( 'NONE', #60 ) ;
#365 = ORIENTED_EDGE ( 'NONE', *, *, #193, .F. ) ;
#366 = EDGE_CURVE ( 'NONE', #249, #249, #387, .T. ) ;
#367 = FACE_OUTER_BOUND ( 'NONE', #11, .T. ) ;
#368 = DIRECTION ( 'NONE',  ( 1.000000000000000000, 0.000000000000000000, -6.127058634796672738E-15 ) ) ;
#369 = DIRECTION ( 'NONE',  ( 1.000000000000000000, 0.000000000000000000, -3.491481338843133355E-15 ) ) ;
#370 = EDGE_LOOP ( 'NONE', ( #130 ) ) ;
#371 = ORIENTED_EDGE ( 'NONE', *, *, #267, .T. ) ;
#372 = CYLINDRICAL_SURFACE ( 'NONE', #348, 3.254999999999999893 ) ;
#373 = CC_DESIGN_PERSON_AND_ORGANIZATION_ASSIGNMENT ( #182, #239, ( #83 ) ) ;
#374 = DIRECTION ( 'NONE',  ( 3.491481338843133355E-15, -0.000000000000000000, 1.000000000000000000 ) ) ;
#375 = CARTESIAN_POINT ( 'NONE',  ( 0.000000000000000000, 0.000000000000000000, 0.000000000000000000 ) ) ;
#376 = CYLINDRICAL_SURFACE ( 'NONE', #215, 2.533312163512963622 ) ;
#377 = EDGE_LOOP ( 'NONE', ( #195 ) ) ;
#378 = DIRECTION ( 'NONE',  ( -1.000000000000000000, 0.000000000000000000, 3.464117540353071286E-15 ) ) ;
#379 = AXIS2_PLACEMENT_3D ( 'NONE', #385, #113, #229 ) ;
#380 = CIRCLE ( 'NONE', #66, 3.254999999999999893 ) ;
#381 = PLANE ( 'NONE',  #233 ) ;
#382 = DIRECTION ( 'NONE',  ( 3.491481338843133355E-15, -0.000000000000000000, 1.000000000000000000 ) ) ;
#383 = APPROVAL_DATE_TIME ( #201, #384 ) ;
#384 = APPROVAL ( #174, 'UNSPECIFIED' ) ;
#385 = CARTESIAN_POINT ( 'NONE',  ( 2.000327850378900441E-15, 0.000000000000000000, 0.5729166666666729579 ) ) ;
#386 = AXIS2_PLACEMENT_3D ( 'NONE', #17, #340, #77 ) ;
#387 = CIRCLE ( 'NONE', #154, 2.265000000000000124 ) ;
#388 = CONICAL_SURFACE ( 'NONE', #386, 3.999999999999994671, 0.7853981633974418397 ) ;
#389 = MECHANICAL_CONTEXT ( 'NONE', #29, 'mechanical' ) ;
#390 = DIRECTION ( 'NONE',  ( 1.000000000000000000, 0.000000000000000000, -3.446470482073126542E-15 ) ) ;
#391 = PERSON_AND_ORGANIZATION ( #19, #332 ) ;
#392 = CARTESIAN_POINT ( 'NONE',  ( 2.364023823175020197E-15, 0.000000000000000000, 0.6770833333333281523 ) ) ;
#393 = COORDINATED_UNIVERSAL_TIME_OFFSET ( 1, 0, .AHEAD. ) ;
#394 = CARTESIAN_POINT ( 'NONE',  ( 3.255000000000006555, 0.000000000000000000, 1.822916666666648977 ) ) ;
#395 = CIRCLE ( 'NONE', #220, 3.254999999999999893 ) ;
ENDSEC;
END-ISO-10303-21;
