ISO-10303-21;
HEADER;
FILE_DESCRIPTION (( 'STEP AP203' ),
    '1' );
FILE_NAME ('961193.step',
    '2023-09-27T08:31:51',
    ( '' ),
    ( '' ),
    'SwSTEP 2.0',
    'SolidWorks 2022',
    '' );
FILE_SCHEMA (( 'CONFIG_CONTROL_DESIGN' ));
ENDSEC;

DATA;
#1 = AXIS2_PLACEMENT_3D ( 'NONE', #20, #297, #363 ) ;
#2 = CARTESIAN_POINT ( 'NONE',  ( 2.400000000000195755, 0.000000000000000000, 56.99999999999999289 ) ) ;
#3 = DIRECTION ( 'NONE',  ( 1.000000000000000000, 0.000000000000000000, -2.885194970439596430E-15 ) ) ;
#4 = DESIGN_CONTEXT ( 'detailed design', #346, 'design' ) ;
#5 =( NAMED_UNIT ( * ) PLANE_ANGLE_UNIT ( ) SI_UNIT ( $, .RADIAN. ) );
#6 = CARTESIAN_POINT ( 'NONE',  ( 6.794010357190079256E-14, 0.000000000000000000, 19.45881904510251559 ) ) ;
#7 = PERSON_AND_ORGANIZATION ( #333, #385 ) ;
#8 = ORIENTED_EDGE ( 'NONE', *, *, #354, .T. ) ;
#9 = VERTEX_POINT ( 'NONE', #190 ) ;
#10 = LOCAL_TIME ( 10, 31, 51.00000000000000000, #321 ) ;
#11 = ORIENTED_EDGE ( 'NONE', *, *, #294, .T. ) ;
#12 = CARTESIAN_POINT ( 'NONE',  ( 1.990144363140586139E-13, 0.000000000000000000, 57.00000000000000000 ) ) ;
#13 = ADVANCED_FACE ( 'NONE', ( #254 ), #126, .F. ) ;
#14 = DIRECTION ( 'NONE',  ( 3.491481338843133355E-15, -0.000000000000000000, 1.000000000000000000 ) ) ;
#15 = DIRECTION ( 'NONE',  ( 1.000000000000000000, 0.000000000000000000, -3.471250198810139122E-15 ) ) ;
#16 = AXIS2_PLACEMENT_3D ( 'NONE', #19, #166, #15 ) ;
#17 = COORDINATED_UNIVERSAL_TIME_OFFSET ( 1, 0, .AHEAD. ) ;
#18 = CARTESIAN_POINT ( 'NONE',  ( 6.703644170578814780E-14, 0.000000000000000000, 19.19999999999999929 ) ) ;
#19 = CARTESIAN_POINT ( 'NONE',  ( 1.891219058540040297E-15, 0.000000000000000000, 0.5416666666666694052 ) ) ;
#20 = CARTESIAN_POINT ( 'NONE',  ( 0.000000000000000000, 0.000000000000000000, 0.000000000000000000 ) ) ;
#21 = CIRCLE ( 'NONE', #379, 1.614999999999997549 ) ;
#22 = CYLINDRICAL_SURFACE ( 'NONE', #327, 1.827649730810370743 ) ;
#23 = EDGE_CURVE ( 'NONE', #178, #178, #79, .T. ) ;
#24 = FACE_BOUND ( 'NONE', #275, .T. ) ;
#25 = EDGE_LOOP ( 'NONE', ( #330 ) ) ;
#26 = DIRECTION ( 'NONE',  ( 1.000000000000000000, 0.000000000000000000, -3.516331370223257730E-15 ) ) ;
#27 = AXIS2_PLACEMENT_3D ( 'NONE', #54, #152, #90 ) ;
#28 = CARTESIAN_POINT ( 'NONE',  ( 2.405000000000005134, 0.000000000000000000, 1.458333333333323933 ) ) ;
#29 = ADVANCED_FACE ( 'NONE', ( #345, #249 ), #278, .T. ) ;
#30 = DIRECTION ( 'NONE',  ( -1.000000000000000000, 0.000000000000000000, 3.491481338843133355E-15 ) ) ;
#31 = CARTESIAN_POINT ( 'NONE',  ( 1.611143379864261371, 0.000000000000000000, -5.625277044996722588E-15 ) ) ;
#32 = ORIENTED_EDGE ( 'NONE', *, *, #132, .F. ) ;
#33 = CIRCLE ( 'NONE', #224, 2.404999999999999805 ) ;
#34 = CALENDAR_DATE ( 2023, 27, 9 ) ;
#35 = EDGE_LOOP ( 'NONE', ( #226 ) ) ;
#36 = EDGE_LOOP ( 'NONE', ( #63 ) ) ;
#37 = TOROIDAL_SURFACE ( 'NONE', #235, 2.614999999999997993, 1.000000000000000444 ) ;
#38 = VERTEX_POINT ( 'NONE', #2 ) ;
#39 = FACE_BOUND ( 'NONE', #218, .T. ) ;
#40 = EDGE_LOOP ( 'NONE', ( #284 ) ) ;
#41 = MANIFOLD_SOLID_BREP ( 'Corps-Déplacer/Copier1', #129 ) ;
#42 = CC_DESIGN_PERSON_AND_ORGANIZATION_ASSIGNMENT ( #167, #260, ( #348 ) ) ;
#43 = FACE_OUTER_BOUND ( 'NONE', #57, .T. ) ;
#44 = CARTESIAN_POINT ( 'NONE',  ( 1.600262280303096214E-15, 0.000000000000000000, 0.4583333333333314275 ) ) ;
#45 = CARTESIAN_POINT ( 'NONE',  ( 1.969195475107527212E-13, 0.000000000000000000, 56.39999999999999858 ) ) ;
#46 = CC_DESIGN_APPROVAL ( #184, ( #394 ) ) ;
#47 = CALENDAR_DATE ( 2023, 27, 9 ) ;
#48 = DIRECTION ( 'NONE',  ( 1.000000000000000000, 0.000000000000000000, -3.493790784516698624E-15 ) ) ;
#49 = AXIS2_PLACEMENT_3D ( 'NONE', #6, #312, #256 ) ;
#50 = CARTESIAN_POINT ( 'NONE',  ( 5.091743619146232725E-15, 0.000000000000000000, 1.458333333333332371 ) ) ;
#51 = DIRECTION ( 'NONE',  ( 1.000000000000000000, 0.000000000000000000, -4.207751242803449509E-15 ) ) ;
#52 = AXIS2_PLACEMENT_3D ( 'NONE', #110, #80, #201 ) ;
#53 = CC_DESIGN_PERSON_AND_ORGANIZATION_ASSIGNMENT ( #225, #283, ( #394 ) ) ;
#54 = CARTESIAN_POINT ( 'NONE',  ( 6.982962677686266711E-15, 1.827649730810370743, 2.000000000000000000 ) ) ;
#55 = ORIENTED_EDGE ( 'NONE', *, *, #138, .F. ) ;
#56 = CYLINDRICAL_SURFACE ( 'NONE', #209, 1.614999999999998881 ) ;
#57 = EDGE_LOOP ( 'NONE', ( #55 ) ) ;
#58 = CARTESIAN_POINT ( 'NONE',  ( 1.990144363140586139E-13, 0.000000000000000000, 57.00000000000000000 ) ) ;
#59 = ADVANCED_FACE ( 'NONE', ( #315, #369 ), #37, .F. ) ;
#60 = CIRCLE ( 'NONE', #308, 2.404999999999999805 ) ;
#61 = DIRECTION ( 'NONE',  ( 3.491481338843133355E-15, -0.000000000000000000, 1.000000000000000000 ) ) ;
#62 = PERSON_AND_ORGANIZATION ( #333, #385 ) ;
#63 = ORIENTED_EDGE ( 'NONE', *, *, #74, .F. ) ;
#64 = VERTEX_POINT ( 'NONE', #68 ) ;
#65 = EDGE_LOOP ( 'NONE', ( #69 ) ) ;
#66 = ADVANCED_FACE ( 'NONE', ( #39, #317 ), #320, .T. ) ;
#67 = CIRCLE ( 'NONE', #16, 2.404999999999999805 ) ;
#68 = CARTESIAN_POINT ( 'NONE',  ( 1.615000000000006875, 0.000000000000000000, 1.999999999999996225 ) ) ;
#69 = ORIENTED_EDGE ( 'NONE', *, *, #265, .F. ) ;
#70 = VERTEX_POINT ( 'NONE', #280 ) ;
#71 = CARTESIAN_POINT ( 'NONE',  ( 1.167076836632530347E-32, 0.000000000000000000, 3.342640911892226654E-18 ) ) ;
#72 =( LENGTH_UNIT ( ) NAMED_UNIT ( * ) SI_UNIT ( .MILLI., .METRE. ) );
#73 = ORIENTED_EDGE ( 'NONE', *, *, #203, .F. ) ;
#74 = EDGE_CURVE ( 'NONE', #150, #150, #381, .T. ) ;
#75 = APPROVAL_DATE_TIME ( #236, #97 ) ;
#76 = CIRCLE ( 'NONE', #145, 1.614999999999999991 ) ;
#77 = CARTESIAN_POINT ( 'NONE',  ( 5.382700397383152353E-15, 0.000000000000000000, 1.541666666666663410 ) ) ;
#78 = FACE_BOUND ( 'NONE', #163, .T. ) ;
#79 = CIRCLE ( 'NONE', #49, 1.649074173710927793 ) ;
#80 = DIRECTION ( 'NONE',  ( 3.491481338843133355E-15, -0.000000000000000000, 1.000000000000000000 ) ) ;
#81 = CYLINDRICAL_SURFACE ( 'NONE', #364, 2.999999999999997780 ) ;
#82 = CC_DESIGN_APPROVAL ( #113, ( #348 ) ) ;
#83 = LOCAL_TIME ( 10, 31, 51.00000000000000000, #251 ) ;
#84 = CARTESIAN_POINT ( 'NONE',  ( 3.927916506198528969E-15, 0.000000000000000000, 1.125000000000000888 ) ) ;
#85 = CONICAL_SURFACE ( 'NONE', #357, 2.404999999999999805, 1.047197551196602960 ) ;
#86 = CARTESIAN_POINT ( 'NONE',  ( 6.982962677686273021E-15, 0.000000000000000000, 2.000000000000001776 ) ) ;
#87 = ADVANCED_FACE ( 'NONE', ( #43, #386 ), #323, .T. ) ;
#88 = FACE_OUTER_BOUND ( 'NONE', #36, .T. ) ;
#89 = AXIS2_PLACEMENT_3D ( 'NONE', #93, #393, #358 ) ;
#90 = DIRECTION ( 'NONE',  ( -1.000000000000000000, 0.000000000000000000, 3.491481338843133355E-15 ) ) ;
#91 = CARTESIAN_POINT ( 'NONE',  ( 1.827649730810374962, 0.000000000000000000, 1.124999999999994671 ) ) ;
#92 = AXIS2_PLACEMENT_3D ( 'NONE', #12, #128, #3 ) ;
#93 = CARTESIAN_POINT ( 'NONE',  ( 1.990144363140586139E-13, 0.000000000000000000, 57.00000000000000000 ) ) ;
#94 = EDGE_LOOP ( 'NONE', ( #250 ) ) ;
#95 = APPROVAL_STATUS ( 'not_yet_approved' ) ;
#96 = ORIENTED_EDGE ( 'NONE', *, *, #255, .F. ) ;
#97 = APPROVAL ( #318, 'UNSPECIFIED' ) ;
#98 = VERTEX_POINT ( 'NONE', #161 ) ;
#99 = CARTESIAN_POINT ( 'NONE',  ( 1.615000000000064606, 0.000000000000000000, 19.19999999999999574 ) ) ;
#100 = EDGE_LOOP ( 'NONE', ( #299 ) ) ;
#101 = PRODUCT ( '961193', '961193', '', ( #336 ) ) ;
#102 = ADVANCED_FACE ( 'NONE', ( #144, #171 ), #153, .T. ) ;
#103 = EDGE_LOOP ( 'NONE', ( #96 ) ) ;
#104 = EDGE_LOOP ( 'NONE', ( #118 ) ) ;
#105 = CIRCLE ( 'NONE', #353, 1.827649730810370965 ) ;
#106 = CARTESIAN_POINT ( 'NONE',  ( 3.055046171487744447E-15, 0.000000000000000000, 0.8750000000000007772 ) ) ;
#107 = DIRECTION ( 'NONE',  ( 1.000000000000000000, 0.000000000000000000, -3.440688056582752238E-15 ) ) ;
#108 = AXIS2_PLACEMENT_3D ( 'NONE', #84, #292, #351 ) ;
#109 = PERSON_AND_ORGANIZATION ( #333, #385 ) ;
#110 = CARTESIAN_POINT ( 'NONE',  ( 0.000000000000000000, 0.000000000000000000, 0.000000000000000000 ) ) ;
#111 = SECURITY_CLASSIFICATION_LEVEL ( 'unclassified' ) ;
#112 = DIRECTION ( 'NONE',  ( -1.000000000000000000, 0.000000000000000000, 4.625929269271492422E-15 ) ) ;
#113 = APPROVAL ( #130, 'UNSPECIFIED' ) ;
#114 = DIRECTION ( 'NONE',  ( -3.491481338843133355E-15, 0.000000000000000000, -1.000000000000000000 ) ) ;
#115 = CARTESIAN_POINT ( 'NONE',  ( 1.969195475107527212E-13, 0.000000000000000000, 56.39999999999999858 ) ) ;
#116 = ORIENTED_EDGE ( 'NONE', *, *, #294, .F. ) ;
#117 = DIRECTION ( 'NONE',  ( 3.491481338843133355E-15, -0.000000000000000000, 1.000000000000000000 ) ) ;
#118 = ORIENTED_EDGE ( 'NONE', *, *, #255, .T. ) ;
#119 = VERTEX_POINT ( 'NONE', #245 ) ;
#120 = DIRECTION ( 'NONE',  ( 3.491481338843133355E-15, -0.000000000000000000, 1.000000000000000000 ) ) ;
#121 = EDGE_LOOP ( 'NONE', ( #228 ) ) ;
#122 = APPROVAL_ROLE ( '' ) ;
#123 = LOCAL_TIME ( 10, 31, 51.00000000000000000, #368 ) ;
#124 = VERTEX_POINT ( 'NONE', #99 ) ;
#125 = CC_DESIGN_PERSON_AND_ORGANIZATION_ASSIGNMENT ( #62, #344, ( #101 ) ) ;
#126 = PLANE ( 'NONE',  #388 ) ;
#127 = VERTEX_POINT ( 'NONE', #274 ) ;
#128 = DIRECTION ( 'NONE',  ( 3.491481338843133355E-15, -0.000000000000000000, 1.000000000000000000 ) ) ;
#129 = CLOSED_SHELL ( 'NONE', ( #13, #217, #313, #172, #87, #199, #29, #66, #335, #342, #390, #59, #378, #246, #102, #282 ) ) ;
#130 = APPROVAL_STATUS ( 'not_yet_approved' ) ;
#131 = EDGE_LOOP ( 'NONE', ( #310 ) ) ;
#132 = EDGE_CURVE ( 'NONE', #119, #119, #148, .T. ) ;
#133 = EDGE_LOOP ( 'NONE', ( #309 ) ) ;
#134 = ADVANCED_BREP_SHAPE_REPRESENTATION ( '961193', ( #41, #189 ), #168 ) ;
#135 = DIRECTION ( 'NONE',  ( 3.491481338843133355E-15, -0.000000000000000000, 1.000000000000000000 ) ) ;
#136 = DIRECTION ( 'NONE',  ( 3.491481338843133355E-15, -0.000000000000000000, 1.000000000000000000 ) ) ;
#137 = CARTESIAN_POINT ( 'NONE',  ( 6.982962677686273021E-15, 0.000000000000000000, 2.000000000000001776 ) ) ;
#138 = EDGE_CURVE ( 'NONE', #361, #361, #325, .T. ) ;
#139 = PERSON_AND_ORGANIZATION_ROLE ( 'creator' ) ;
#140 = DIRECTION ( 'NONE',  ( -3.491481338843133355E-15, 0.000000000000000000, -1.000000000000000000 ) ) ;
#141 = APPROVAL_DATE_TIME ( #311, #113 ) ;
#142 = DIRECTION ( 'NONE',  ( -1.000000000000000000, 0.000000000000000000, 3.471250198810139122E-15 ) ) ;
#143 = EDGE_CURVE ( 'NONE', #215, #215, #331, .T. ) ;
#144 = FACE_BOUND ( 'NONE', #103, .T. ) ;
#145 = AXIS2_PLACEMENT_3D ( 'NONE', #86, #240, #268 ) ;
#146 = DIRECTION ( 'NONE',  ( 1.000000000000000000, 0.000000000000000000, -4.625929269271492422E-15 ) ) ;
#147 = AXIS2_PLACEMENT_3D ( 'NONE', #137, #377, #257 ) ;
#148 = CIRCLE ( 'NONE', #194, 1.827649730810370743 ) ;
#149 = CARTESIAN_POINT ( 'NONE',  ( 6.794010357190079256E-14, 0.000000000000000000, 19.45881904510251559 ) ) ;
#150 = VERTEX_POINT ( 'NONE', #207 ) ;
#151 = CONICAL_SURFACE ( 'NONE', #230, 1.827649730810370965, 1.047197551196602738 ) ;
#152 = DIRECTION ( 'NONE',  ( -3.491481338843133355E-15, 0.000000000000000000, -1.000000000000000000 ) ) ;
#153 = CONICAL_SURFACE ( 'NONE', #374, 2.999999999999995559, 0.7853981633974447263 ) ;
#154 = EDGE_CURVE ( 'NONE', #301, #301, #160, .T. ) ;
#155 = VERTEX_POINT ( 'NONE', #31 ) ;
#156 = CIRCLE ( 'NONE', #1, 1.611143379864261371 ) ;
#157 = COORDINATED_UNIVERSAL_TIME_OFFSET ( 1, 0, .AHEAD. ) ;
#158 = ORIENTED_EDGE ( 'NONE', *, *, #23, .T. ) ;
#159 = ORIENTED_EDGE ( 'NONE', *, *, #383, .F. ) ;
#160 = CIRCLE ( 'NONE', #214, 2.404999999999999805 ) ;
#161 = CARTESIAN_POINT ( 'NONE',  ( 2.405000000000001581, 0.000000000000000000, 0.4583333333333230453 ) ) ;
#162 = EDGE_LOOP ( 'NONE', ( #159 ) ) ;
#163 = EDGE_LOOP ( 'NONE', ( #32 ) ) ;
#164 = DIRECTION ( 'NONE',  ( 3.491481338843133355E-15, -0.000000000000000000, 1.000000000000000000 ) ) ;
#165 = CC_DESIGN_DATE_AND_TIME_ASSIGNMENT ( #170, #316, ( #300 ) ) ;
#166 = DIRECTION ( 'NONE',  ( 3.491481338843133355E-15, -0.000000000000000000, 1.000000000000000000 ) ) ;
#167 = PERSON_AND_ORGANIZATION ( #333, #385 ) ;
#168 =( GEOMETRIC_REPRESENTATION_CONTEXT ( 3 ) GLOBAL_UNCERTAINTY_ASSIGNED_CONTEXT ( ( #179 ) ) GLOBAL_UNIT_ASSIGNED_CONTEXT ( ( #72, #5, #307 ) ) REPRESENTATION_CONTEXT ( 'NONE', 'WORKASPACE' ) );
#169 = FACE_OUTER_BOUND ( 'NONE', #25, .T. ) ;
#170 = DATE_AND_TIME ( #47, #10 ) ;
#171 = FACE_OUTER_BOUND ( 'NONE', #188, .T. ) ;
#172 = ADVANCED_FACE ( 'NONE', ( #78, #347 ), #85, .T. ) ;
#173 = DIRECTION ( 'NONE',  ( 3.491481338843133355E-15, -0.000000000000000000, 1.000000000000000000 ) ) ;
#174 = CC_DESIGN_APPROVAL ( #97, ( #300 ) ) ;
#175 = CYLINDRICAL_SURFACE ( 'NONE', #89, 2.404999999999999805 ) ;
#176 = APPROVAL_PERSON_ORGANIZATION ( #7, #113, #122 ) ;
#177 = FACE_OUTER_BOUND ( 'NONE', #373, .T. ) ;
#178 = VERTEX_POINT ( 'NONE', #395 ) ;
#179 = UNCERTAINTY_MEASURE_WITH_UNIT (LENGTH_MEASURE( 1.000000000000000082E-05 ), #72, 'distance_accuracy_value', 'NONE');
#180 = CARTESIAN_POINT ( 'NONE',  ( 3.000000000000085709, 0.000000000000000000, 24.50054286607042187 ) ) ;
#181 = CONICAL_SURFACE ( 'NONE', #295, 1.649074173710927793, 0.2617993877991429130 ) ;
#182 = APPROVAL_PERSON_ORGANIZATION ( #262, #97, #233 ) ;
#183 = DIRECTION ( 'NONE',  ( 3.491481338843133355E-15, -0.000000000000000000, 1.000000000000000000 ) ) ;
#184 = APPROVAL ( #95, 'UNSPECIFIED' ) ;
#185 = APPLICATION_PROTOCOL_DEFINITION ( 'international standard', 'config_control_design', 1994, #346 ) ;
#186 = ORIENTED_EDGE ( 'NONE', *, *, #203, .T. ) ;
#187 = APPROVAL_ROLE ( '' ) ;
#188 = EDGE_LOOP ( 'NONE', ( #337 ) ) ;
#189 = AXIS2_PLACEMENT_3D ( 'NONE', #253, #372, #220 ) ;
#190 = CARTESIAN_POINT ( 'NONE',  ( 2.405000000000005134, 0.000000000000000000, 1.541666666666654972 ) ) ;
#191 = EDGE_LOOP ( 'NONE', ( #73 ) ) ;
#192 = PRODUCT_DEFINITION_SHAPE ( 'NONE', 'NONE',  #394 ) ;
#193 = DIRECTION ( 'NONE',  ( 1.000000000000000000, 0.000000000000000000, -3.491481338843133355E-15 ) ) ;
#194 = AXIS2_PLACEMENT_3D ( 'NONE', #106, #14, #205 ) ;
#195 = DATE_AND_TIME ( #34, #123 ) ;
#196 = EDGE_LOOP ( 'NONE', ( #11 ) ) ;
#197 = AXIS2_PLACEMENT_3D ( 'NONE', #216, #387, #30 ) ;
#198 = DIRECTION ( 'NONE',  ( 3.491481338843133355E-15, -0.000000000000000000, 1.000000000000000000 ) ) ;
#199 = ADVANCED_FACE ( 'NONE', ( #169, #200 ), #151, .T. ) ;
#200 = FACE_BOUND ( 'NONE', #375, .T. ) ;
#201 = DIRECTION ( 'NONE',  ( 1.000000000000000000, 0.000000000000000000, -3.491481338843133355E-15 ) ) ;
#202 = CONICAL_SURFACE ( 'NONE', #52, 1.611143379864261371, 1.047197551196601406 ) ;
#203 = EDGE_CURVE ( 'NONE', #98, #98, #33, .T. ) ;
#204 = CARTESIAN_POINT ( 'NONE',  ( 1.990144363140586139E-13, 0.000000000000000000, 57.00000000000000000 ) ) ;
#205 = DIRECTION ( 'NONE',  ( 1.000000000000000000, 0.000000000000000000, -3.500010264454869309E-15 ) ) ;
#206 = AXIS2_PLACEMENT_3D ( 'NONE', #324, #239, #232 ) ;
#207 = CARTESIAN_POINT ( 'NONE',  ( 1.827649730810377626, 0.000000000000000000, 1.999999999999995337 ) ) ;
#208 = DIRECTION ( 'NONE',  ( 1.000000000000000000, 0.000000000000000000, -3.796621303815451507E-15 ) ) ;
#209 = AXIS2_PLACEMENT_3D ( 'NONE', #58, #61, #332 ) ;
#210 = ORIENTED_EDGE ( 'NONE', *, *, #277, .F. ) ;
#211 = EDGE_CURVE ( 'NONE', #341, #341, #67, .T. ) ;
#212 = DIRECTION ( 'NONE',  ( 1.000000000000000000, 0.000000000000000000, -4.296528733069497872E-15 ) ) ;
#213 = EDGE_LOOP ( 'NONE', ( #248 ) ) ;
#214 = AXIS2_PLACEMENT_3D ( 'NONE', #50, #136, #349 ) ;
#215 = VERTEX_POINT ( 'NONE', #180 ) ;
#216 = CARTESIAN_POINT ( 'NONE',  ( 1.990144363140586139E-13, 2.399999999999996803, 57.00000000000000000 ) ) ;
#217 = ADVANCED_FACE ( 'NONE', ( #261, #287 ), #202, .T. ) ;
#218 = EDGE_LOOP ( 'NONE', ( #116 ) ) ;
#219 = DATE_AND_TIME ( #276, #269 ) ;
#220 = DIRECTION ( 'NONE',  ( 1.000000000000000000, 0.000000000000000000, 0.000000000000000000 ) ) ;
#221 = AXIS2_PLACEMENT_3D ( 'NONE', #382, #198, #285 ) ;
#222 = EDGE_LOOP ( 'NONE', ( #252 ) ) ;
#223 = EDGE_LOOP ( 'NONE', ( #340 ) ) ;
#224 = AXIS2_PLACEMENT_3D ( 'NONE', #44, #264, #48 ) ;
#225 = PERSON_AND_ORGANIZATION ( #333, #385 ) ;
#226 = ORIENTED_EDGE ( 'NONE', *, *, #132, .T. ) ;
#227 = CARTESIAN_POINT ( 'NONE',  ( 2.405000000000001581, 0.000000000000000000, 0.5416666666666610785 ) ) ;
#228 = ORIENTED_EDGE ( 'NONE', *, *, #211, .F. ) ;
#229 = EDGE_LOOP ( 'NONE', ( #367 ) ) ;
#230 = AXIS2_PLACEMENT_3D ( 'NONE', #290, #380, #107 ) ;
#231 = PERSON_AND_ORGANIZATION_ROLE ( 'classification_officer' ) ;
#232 = DIRECTION ( 'NONE',  ( 1.000000000000000000, 0.000000000000000000, -3.469446951953614189E-15 ) ) ;
#233 = APPROVAL_ROLE ( '' ) ;
#234 = DIRECTION ( 'NONE',  ( -3.491481338843133355E-15, 0.000000000000000000, -1.000000000000000000 ) ) ;
#235 = AXIS2_PLACEMENT_3D ( 'NONE', #18, #164, #259 ) ;
#236 = DATE_AND_TIME ( #286, #359 ) ;
#237 = FACE_OUTER_BOUND ( 'NONE', #131, .T. ) ;
#238 = AXIS2_PLACEMENT_3D ( 'NONE', #115, #117, #146 ) ;
#239 = DIRECTION ( 'NONE',  ( 3.491481338843133355E-15, -0.000000000000000000, 1.000000000000000000 ) ) ;
#240 = DIRECTION ( 'NONE',  ( 3.491481338843133355E-15, -0.000000000000000000, 1.000000000000000000 ) ) ;
#241 = FACE_OUTER_BOUND ( 'NONE', #104, .T. ) ;
#242 = CC_DESIGN_PERSON_AND_ORGANIZATION_ASSIGNMENT ( #109, #139, ( #348 ) ) ;
#243 = CARTESIAN_POINT ( 'NONE',  ( 5.382700397383152353E-15, 0.000000000000000000, 1.541666666666663410 ) ) ;
#244 = EDGE_LOOP ( 'NONE', ( #281 ) ) ;
#245 = CARTESIAN_POINT ( 'NONE',  ( 1.827649730810373851, 0.000000000000000000, 0.8749999999999943379 ) ) ;
#246 = ADVANCED_FACE ( 'NONE', ( #322, #237 ), #81, .T. ) ;
#247 = PLANE ( 'NONE',  #27 ) ;
#248 = ORIENTED_EDGE ( 'NONE', *, *, #211, .T. ) ;
#249 = FACE_OUTER_BOUND ( 'NONE', #244, .T. ) ;
#250 = ORIENTED_EDGE ( 'NONE', *, *, #354, .F. ) ;
#251 = COORDINATED_UNIVERSAL_TIME_OFFSET ( 1, 0, .AHEAD. ) ;
#252 = ORIENTED_EDGE ( 'NONE', *, *, #270, .T. ) ;
#253 = CARTESIAN_POINT ( 'NONE',  ( 0.000000000000000000, 0.000000000000000000, 0.000000000000000000 ) ) ;
#254 = FACE_OUTER_BOUND ( 'NONE', #65, .T. ) ;
#255 = EDGE_CURVE ( 'NONE', #38, #38, #258, .T. ) ;
#256 = DIRECTION ( 'NONE',  ( 1.000000000000000000, 0.000000000000000000, -4.207751242803449509E-15 ) ) ;
#257 = DIRECTION ( 'NONE',  ( 1.000000000000000000, 0.000000000000000000, -3.559332472326985591E-15 ) ) ;
#258 = CIRCLE ( 'NONE', #391, 2.399999999999996803 ) ;
#259 = DIRECTION ( 'NONE',  ( 1.000000000000000000, 0.000000000000000000, -3.491481338843133355E-15 ) ) ;
#260 = PERSON_AND_ORGANIZATION_ROLE ( 'design_supplier' ) ;
#261 = FACE_OUTER_BOUND ( 'NONE', #191, .T. ) ;
#262 = PERSON_AND_ORGANIZATION ( #333, #385 ) ;
#263 = DIRECTION ( 'NONE',  ( 3.491481338843133355E-15, -0.000000000000000000, 1.000000000000000000 ) ) ;
#264 = DIRECTION ( 'NONE',  ( 3.491481338843133355E-15, -0.000000000000000000, 1.000000000000000000 ) ) ;
#265 = EDGE_CURVE ( 'NONE', #155, #155, #156, .T. ) ;
#266 = PLANE ( 'NONE',  #197 ) ;
#267 = DIRECTION ( 'NONE',  ( 3.491481338843133355E-15, -0.000000000000000000, 1.000000000000000000 ) ) ;
#268 = DIRECTION ( 'NONE',  ( 1.000000000000000000, 0.000000000000000000, -3.490929595618961745E-15 ) ) ;
#269 = LOCAL_TIME ( 10, 31, 51.00000000000000000, #157 ) ;
#270 = EDGE_CURVE ( 'NONE', #64, #64, #76, .T. ) ;
#271 = FACE_OUTER_BOUND ( 'NONE', #196, .T. ) ;
#272 = EDGE_LOOP ( 'NONE', ( #8 ) ) ;
#273 = FACE_OUTER_BOUND ( 'NONE', #40, .T. ) ;
#274 = CARTESIAN_POINT ( 'NONE',  ( 1.827649730810377404, 0.000000000000000000, 1.874999999999995337 ) ) ;
#275 = EDGE_LOOP ( 'NONE', ( #158 ) ) ;
#276 = CALENDAR_DATE ( 2023, 27, 9 ) ;
#277 = EDGE_CURVE ( 'NONE', #70, #70, #288, .T. ) ;
#278 = CYLINDRICAL_SURFACE ( 'NONE', #92, 2.404999999999999805 ) ;
#279 = ORIENTED_EDGE ( 'NONE', *, *, #138, .T. ) ;
#280 = CARTESIAN_POINT ( 'NONE',  ( 3.000000000000192735, 0.000000000000000000, 56.39999999999998437 ) ) ;
#281 = ORIENTED_EDGE ( 'NONE', *, *, #154, .T. ) ;
#282 = ADVANCED_FACE ( 'NONE', ( #241 ), #266, .F. ) ;
#283 = PERSON_AND_ORGANIZATION_ROLE ( 'creator' ) ;
#284 = ORIENTED_EDGE ( 'NONE', *, *, #143, .F. ) ;
#285 = DIRECTION ( 'NONE',  ( 1.000000000000000000, 0.000000000000000000, -3.796621303815451507E-15 ) ) ;
#286 = CALENDAR_DATE ( 2023, 27, 9 ) ;
#287 = FACE_BOUND ( 'NONE', #223, .T. ) ;
#288 = CIRCLE ( 'NONE', #238, 2.999999999999995559 ) ;
#289 = PERSON_AND_ORGANIZATION ( #333, #385 ) ;
#290 = CARTESIAN_POINT ( 'NONE',  ( 3.927916506198528969E-15, 0.000000000000000000, 1.125000000000000888 ) ) ;
#291 = SHAPE_DEFINITION_REPRESENTATION ( #192, #134 ) ;
#292 = DIRECTION ( 'NONE',  ( 3.491481338843133355E-15, -0.000000000000000000, 1.000000000000000000 ) ) ;
#293 = DIRECTION ( 'NONE',  ( 1.000000000000000000, 0.000000000000000000, -2.891205793294682172E-15 ) ) ;
#294 = EDGE_CURVE ( 'NONE', #127, #127, #105, .T. ) ;
#295 = AXIS2_PLACEMENT_3D ( 'NONE', #149, #120, #51 ) ;
#296 = DIRECTION ( 'NONE',  ( 1.000000000000000000, 0.000000000000000000, -3.440688056582752238E-15 ) ) ;
#297 = DIRECTION ( 'NONE',  ( 3.491481338843133355E-15, -0.000000000000000000, 1.000000000000000000 ) ) ;
#298 = FACE_OUTER_BOUND ( 'NONE', #94, .T. ) ;
#299 = ORIENTED_EDGE ( 'NONE', *, *, #23, .F. ) ;
#300 = SECURITY_CLASSIFICATION ( '', '', #111 ) ;
#301 = VERTEX_POINT ( 'NONE', #28 ) ;
#302 = DIRECTION ( 'NONE',  ( 3.491481338843133355E-15, -0.000000000000000000, 1.000000000000000000 ) ) ;
#303 = APPLICATION_CONTEXT ( 'configuration controlled 3d designs of mechanical parts and assemblies' ) ;
#304 = PERSON_AND_ORGANIZATION ( #333, #385 ) ;
#305 = EDGE_LOOP ( 'NONE', ( #210 ) ) ;
#306 = CC_DESIGN_DATE_AND_TIME_ASSIGNMENT ( #219, #338, ( #394 ) ) ;
#307 =( NAMED_UNIT ( * ) SI_UNIT ( $, .STERADIAN. ) SOLID_ANGLE_UNIT ( ) );
#308 = AXIS2_PLACEMENT_3D ( 'NONE', #243, #326, #26 ) ;
#309 = ORIENTED_EDGE ( 'NONE', *, *, #74, .T. ) ;
#310 = ORIENTED_EDGE ( 'NONE', *, *, #143, .T. ) ;
#311 = DATE_AND_TIME ( #370, #83 ) ;
#312 = DIRECTION ( 'NONE',  ( 3.491481338843133355E-15, -0.000000000000000000, 1.000000000000000000 ) ) ;
#313 = ADVANCED_FACE ( 'NONE', ( #329, #177 ), #175, .T. ) ;
#314 = APPROVAL_DATE_TIME ( #195, #184 ) ;
#315 = FACE_OUTER_BOUND ( 'NONE', #100, .T. ) ;
#316 = DATE_TIME_ROLE ( 'classification_date' ) ;
#317 = FACE_OUTER_BOUND ( 'NONE', #229, .T. ) ;
#318 = APPROVAL_STATUS ( 'not_yet_approved' ) ;
#319 = CARTESIAN_POINT ( 'NONE',  ( 1.891219058540040297E-15, 0.000000000000000000, 0.5416666666666694052 ) ) ;
#320 = CONICAL_SURFACE ( 'NONE', #362, 2.404999999999999805, 1.047197551196593857 ) ;
#321 = COORDINATED_UNIVERSAL_TIME_OFFSET ( 1, 0, .AHEAD. ) ;
#322 = FACE_OUTER_BOUND ( 'NONE', #305, .T. ) ;
#323 = CYLINDRICAL_SURFACE ( 'NONE', #221, 1.827649730810370743 ) ;
#324 = CARTESIAN_POINT ( 'NONE',  ( 8.554318820841117052E-14, 0.000000000000000000, 24.50054286607043252 ) ) ;
#325 = CIRCLE ( 'NONE', #108, 1.827649730810370965 ) ;
#326 = DIRECTION ( 'NONE',  ( 3.491481338843133355E-15, -0.000000000000000000, 1.000000000000000000 ) ) ;
#327 = AXIS2_PLACEMENT_3D ( 'NONE', #356, #183, #208 ) ;
#328 = FACE_OUTER_BOUND ( 'NONE', #133, .T. ) ;
#329 = FACE_OUTER_BOUND ( 'NONE', #121, .T. ) ;
#330 = ORIENTED_EDGE ( 'NONE', *, *, #154, .F. ) ;
#331 = CIRCLE ( 'NONE', #206, 3.000000000000000000 ) ;
#332 = DIRECTION ( 'NONE',  ( 1.000000000000000000, 0.000000000000000000, -4.296528733069493927E-15 ) ) ;
#333 = PERSON ( 'UNSPECIFIED', 'UNSPECIFIED', 'UNSPECIFIED', ('UNSPECIFIED'), ('UNSPECIFIED'), ('UNSPECIFIED') ) ;
#334 = FACE_BOUND ( 'NONE', #343, .T. ) ;
#335 = ADVANCED_FACE ( 'NONE', ( #88, #271 ), #22, .T. ) ;
#336 = MECHANICAL_CONTEXT ( 'NONE', #303, 'mechanical' ) ;
#337 = ORIENTED_EDGE ( 'NONE', *, *, #277, .T. ) ;
#338 = DATE_TIME_ROLE ( 'creation_date' ) ;
#339 = APPROVAL_PERSON_ORGANIZATION ( #304, #184, #187 ) ;
#340 = ORIENTED_EDGE ( 'NONE', *, *, #265, .T. ) ;
#341 = VERTEX_POINT ( 'NONE', #227 ) ;
#342 = ADVANCED_FACE ( 'NONE', ( #334, #328 ), #247, .F. ) ;
#343 = EDGE_LOOP ( 'NONE', ( #371 ) ) ;
#344 = PERSON_AND_ORGANIZATION_ROLE ( 'design_owner' ) ;
#345 = FACE_OUTER_BOUND ( 'NONE', #162, .T. ) ;
#346 = APPLICATION_CONTEXT ( 'configuration controlled 3d designs of mechanical parts and assemblies' ) ;
#347 = FACE_OUTER_BOUND ( 'NONE', #213, .T. ) ;
#348 = PRODUCT_DEFINITION_FORMATION_WITH_SPECIFIED_SOURCE ( 'ANY', '', #101, .NOT_KNOWN. ) ;
#349 = DIRECTION ( 'NONE',  ( 1.000000000000000000, 0.000000000000000000, -3.516331370223257730E-15 ) ) ;
#350 = PRODUCT_RELATED_PRODUCT_CATEGORY ( 'detail', '', ( #101 ) ) ;
#351 = DIRECTION ( 'NONE',  ( 1.000000000000000000, 0.000000000000000000, -3.440688056582752238E-15 ) ) ;
#352 = DIRECTION ( 'NONE',  ( -1.000000000000000000, 0.000000000000000000, 3.516331370223257730E-15 ) ) ;
#353 = AXIS2_PLACEMENT_3D ( 'NONE', #389, #267, #296 ) ;
#354 = EDGE_CURVE ( 'NONE', #124, #124, #21, .T. ) ;
#355 = CARTESIAN_POINT ( 'NONE',  ( 1.990144363140586139E-13, 0.000000000000000000, 57.00000000000000000 ) ) ;
#356 = CARTESIAN_POINT ( 'NONE',  ( 1.990144363140586139E-13, 0.000000000000000000, 57.00000000000000000 ) ) ;
#357 = AXIS2_PLACEMENT_3D ( 'NONE', #319, #140, #142 ) ;
#358 = DIRECTION ( 'NONE',  ( 1.000000000000000000, 0.000000000000000000, -2.885194970439596430E-15 ) ) ;
#359 = LOCAL_TIME ( 10, 31, 51.00000000000000000, #17 ) ;
#360 = FACE_OUTER_BOUND ( 'NONE', #222, .T. ) ;
#361 = VERTEX_POINT ( 'NONE', #91 ) ;
#362 = AXIS2_PLACEMENT_3D ( 'NONE', #77, #234, #352 ) ;
#363 = DIRECTION ( 'NONE',  ( 1.000000000000000000, 0.000000000000000000, -3.491481338843133355E-15 ) ) ;
#364 = AXIS2_PLACEMENT_3D ( 'NONE', #204, #263, #384 ) ;
#365 = APPLICATION_PROTOCOL_DEFINITION ( 'international standard', 'config_control_design', 1994, #303 ) ;
#366 = CC_DESIGN_PERSON_AND_ORGANIZATION_ASSIGNMENT ( #289, #231, ( #300 ) ) ;
#367 = ORIENTED_EDGE ( 'NONE', *, *, #383, .T. ) ;
#368 = COORDINATED_UNIVERSAL_TIME_OFFSET ( 1, 0, .AHEAD. ) ;
#369 = FACE_OUTER_BOUND ( 'NONE', #272, .T. ) ;
#370 = CALENDAR_DATE ( 2023, 27, 9 ) ;
#371 = ORIENTED_EDGE ( 'NONE', *, *, #270, .F. ) ;
#372 = DIRECTION ( 'NONE',  ( 0.000000000000000000, 0.000000000000000000, 1.000000000000000000 ) ) ;
#373 = EDGE_LOOP ( 'NONE', ( #186 ) ) ;
#374 = AXIS2_PLACEMENT_3D ( 'NONE', #45, #114, #112 ) ;
#375 = EDGE_LOOP ( 'NONE', ( #279 ) ) ;
#376 = CC_DESIGN_SECURITY_CLASSIFICATION ( #300, ( #348 ) ) ;
#377 = DIRECTION ( 'NONE',  ( 3.491481338843133355E-15, -0.000000000000000000, 1.000000000000000000 ) ) ;
#378 = ADVANCED_FACE ( 'NONE', ( #273, #24 ), #181, .T. ) ;
#379 = AXIS2_PLACEMENT_3D ( 'NONE', #392, #302, #212 ) ;
#380 = DIRECTION ( 'NONE',  ( 3.491481338843133355E-15, -0.000000000000000000, 1.000000000000000000 ) ) ;
#381 = CIRCLE ( 'NONE', #147, 1.827649730810370743 ) ;
#382 = CARTESIAN_POINT ( 'NONE',  ( 1.990144363140586139E-13, 0.000000000000000000, 57.00000000000000000 ) ) ;
#383 = EDGE_CURVE ( 'NONE', #9, #9, #60, .T. ) ;
#384 = DIRECTION ( 'NONE',  ( 1.000000000000000000, 0.000000000000000000, -4.625929269271489266E-15 ) ) ;
#385 = ORGANIZATION ( 'UNSPECIFIED', 'UNSPECIFIED', '' ) ;
#386 = FACE_OUTER_BOUND ( 'NONE', #35, .T. ) ;
#387 = DIRECTION ( 'NONE',  ( -3.491481338843133355E-15, 0.000000000000000000, -1.000000000000000000 ) ) ;
#388 = AXIS2_PLACEMENT_3D ( 'NONE', #71, #135, #193 ) ;
#389 = CARTESIAN_POINT ( 'NONE',  ( 6.546527510330881352E-15, 0.000000000000000000, 1.875000000000001776 ) ) ;
#390 = ADVANCED_FACE ( 'NONE', ( #298, #360 ), #56, .T. ) ;
#391 = AXIS2_PLACEMENT_3D ( 'NONE', #355, #173, #293 ) ;
#392 = CARTESIAN_POINT ( 'NONE',  ( 6.703644170578816042E-14, 0.000000000000000000, 19.20000000000000284 ) ) ;
#393 = DIRECTION ( 'NONE',  ( 3.491481338843133355E-15, -0.000000000000000000, 1.000000000000000000 ) ) ;
#394 = PRODUCT_DEFINITION ( 'UNKNOWN', '', #348, #4 ) ;
#395 = CARTESIAN_POINT ( 'NONE',  ( 1.649074173710995517, 0.000000000000000000, 19.45881904510250848 ) ) ;
ENDSEC;
END-ISO-10303-21;
