ISO-10303-21;
HEADER;
FILE_DESCRIPTION (( 'STEP AP203' ),
    '1' );
FILE_NAME ('961192.step',
    '2023-09-27T08:31:51',
    ( '' ),
    ( '' ),
    'SwSTEP 2.0',
    'SolidWorks 2022',
    '' );
FILE_SCHEMA (( 'CONFIG_CONTROL_DESIGN' ));
ENDSEC;

DATA;
#1 = CONICAL_SURFACE ( 'NONE', #347, 1.563119784648296484, 1.047197551196591858 ) ;
#2 = EDGE_LOOP ( 'NONE', ( #337 ) ) ;
#3 = DIRECTION ( 'NONE',  ( 0.000000000000000000, 0.000000000000000000, 1.000000000000000000 ) ) ;
#4 = DIRECTION ( 'NONE',  ( 1.000000000000000000, 0.000000000000000000, -3.469446951953614189E-15 ) ) ;
#5 = ORIENTED_EDGE ( 'NONE', *, *, #41, .T. ) ;
#6 = AXIS2_PLACEMENT_3D ( 'NONE', #80, #208, #175 ) ;
#7 = EDGE_LOOP ( 'NONE', ( #268 ) ) ;
#8 = CALENDAR_DATE ( 2023, 27, 9 ) ;
#9 = FACE_BOUND ( 'NONE', #149, .T. ) ;
#10 = EDGE_CURVE ( 'NONE', #327, #327, #372, .T. ) ;
#11 = DIRECTION ( 'NONE',  ( 3.491481338843133355E-15, -0.000000000000000000, 1.000000000000000000 ) ) ;
#12 = DATE_TIME_ROLE ( 'classification_date' ) ;
#13 = DIRECTION ( 'NONE',  ( 1.000000000000000000, 0.000000000000000000, -3.480155121558409533E-15 ) ) ;
#14 = AXIS2_PLACEMENT_3D ( 'NONE', #66, #335, #241 ) ;
#15 = DIRECTION ( 'NONE',  ( 1.000000000000000000, 0.000000000000000000, -4.992010002810959538E-15 ) ) ;
#16 = DIRECTION ( 'NONE',  ( 1.000000000000000000, 0.000000000000000000, -3.491481338843132961E-15 ) ) ;
#17 = DIRECTION ( 'NONE',  ( 1.000000000000000000, 0.000000000000000000, -3.480155121558409533E-15 ) ) ;
#18 = AXIS2_PLACEMENT_3D ( 'NONE', #371, #243, #250 ) ;
#19 = CARTESIAN_POINT ( 'NONE',  ( 1.990144363140586139E-13, 0.000000000000000000, 57.00000000000000000 ) ) ;
#20 = ADVANCED_FACE ( 'NONE', ( #9, #277 ), #71, .T. ) ;
#21 = CARTESIAN_POINT ( 'NONE',  ( 2.025000000000001243, 0.000000000000000000, 0.4333333333333271309 ) ) ;
#22 = DIRECTION ( 'NONE',  ( 3.491481338843133355E-15, -0.000000000000000000, 1.000000000000000000 ) ) ;
#23 = EDGE_LOOP ( 'NONE', ( #367 ) ) ;
#24 = CIRCLE ( 'NONE', #334, 2.024999999999999911 ) ;
#25 = DIRECTION ( 'NONE',  ( 1.000000000000000000, 0.000000000000000000, -3.468071299249311808E-15 ) ) ;
#26 = PRODUCT_RELATED_PRODUCT_CATEGORY ( 'detail', '', ( #230 ) ) ;
#27 = CARTESIAN_POINT ( 'NONE',  ( 2.444036937190190588E-15, 0.000000000000000000, 0.6999999999999992895 ) ) ;
#28 = EDGE_LOOP ( 'NONE', ( #123 ) ) ;
#29 = APPROVAL_PERSON_ORGANIZATION ( #120, #91, #216 ) ;
#30 = APPROVAL_STATUS ( 'not_yet_approved' ) ;
#31 = DIRECTION ( 'NONE',  ( 3.491481338843133355E-15, -0.000000000000000000, 1.000000000000000000 ) ) ;
#32 = VERTEX_POINT ( 'NONE', #181 ) ;
#33 = EDGE_LOOP ( 'NONE', ( #93 ) ) ;
#34 = CARTESIAN_POINT ( 'NONE',  ( 1.390000000000054081, 0.000000000000000000, 15.99999999999999645 ) ) ;
#35 = ORIENTED_EDGE ( 'NONE', *, *, #51, .T. ) ;
#36 = CIRCLE ( 'NONE', #86, 1.563119784648296484 ) ;
#37 = APPLICATION_PROTOCOL_DEFINITION ( 'international standard', 'config_control_design', 1994, #213 ) ;
#38 = EDGE_LOOP ( 'NONE', ( #111 ) ) ;
#39 = APPROVAL_ROLE ( '' ) ;
#40 = EDGE_LOOP ( 'NONE', ( #158 ) ) ;
#41 = EDGE_CURVE ( 'NONE', #204, #204, #24, .T. ) ;
#42 = DIRECTION ( 'NONE',  ( 3.491481338843133355E-15, -0.000000000000000000, 1.000000000000000000 ) ) ;
#43 = PLANE ( 'NONE',  #50 ) ;
#44 = FACE_OUTER_BOUND ( 'NONE', #307, .T. ) ;
#45 = AXIS2_PLACEMENT_3D ( 'NONE', #392, #235, #262 ) ;
#46 = FACE_OUTER_BOUND ( 'NONE', #245, .T. ) ;
#47 = PERSON_AND_ORGANIZATION_ROLE ( 'classification_officer' ) ;
#48 = DIRECTION ( 'NONE',  ( 3.491481338843133355E-15, -0.000000000000000000, 1.000000000000000000 ) ) ;
#49 = CARTESIAN_POINT ( 'NONE',  ( 3.142333204958813314E-15, 0.000000000000000000, 0.8999999999999980238 ) ) ;
#50 = AXIS2_PLACEMENT_3D ( 'NONE', #167, #137, #257 ) ;
#51 = EDGE_CURVE ( 'NONE', #56, #56, #140, .T. ) ;
#52 = CARTESIAN_POINT ( 'NONE',  ( 1.390000000000005675, 0.000000000000000000, 1.599999999999992539 ) ) ;
#53 = EDGE_LOOP ( 'NONE', ( #329 ) ) ;
#54 = DIRECTION ( 'NONE',  ( 3.491481338843133355E-15, -0.000000000000000000, 1.000000000000000000 ) ) ;
#55 = SECURITY_CLASSIFICATION ( '', '', #195 ) ;
#56 = VERTEX_POINT ( 'NONE', #52 ) ;
#57 = ADVANCED_FACE ( 'NONE', ( #364, #332 ), #62, .T. ) ;
#58 = AXIS2_PLACEMENT_3D ( 'NONE', #27, #209, #87 ) ;
#59 = FACE_OUTER_BOUND ( 'NONE', #95, .T. ) ;
#60 = VERTEX_POINT ( 'NONE', #117 ) ;
#61 = EDGE_LOOP ( 'NONE', ( #5 ) ) ;
#62 = CYLINDRICAL_SURFACE ( 'NONE', #383, 1.389999999999999014 ) ;
#63 = CC_DESIGN_PERSON_AND_ORGANIZATION_ASSIGNMENT ( #73, #47, ( #55 ) ) ;
#64 = CIRCLE ( 'NONE', #166, 1.389914703891409031 ) ;
#65 = VERTEX_POINT ( 'NONE', #218 ) ;
#66 = CARTESIAN_POINT ( 'NONE',  ( 5.586370142149003902E-15, 0.000000000000000000, 1.599999999999997202 ) ) ;
#67 = ORIENTED_EDGE ( 'NONE', *, *, #127, .F. ) ;
#68 = COORDINATED_UNIVERSAL_TIME_OFFSET ( 1, 0, .AHEAD. ) ;
#69 = ORIENTED_EDGE ( 'NONE', *, *, #381, .F. ) ;
#70 = EDGE_CURVE ( 'NONE', #294, #294, #286, .T. ) ;
#71 = CONICAL_SURFACE ( 'NONE', #18, 2.024999999999999911, 1.047197551196603182 ) ;
#72 = CARTESIAN_POINT ( 'NONE',  ( 5.586370142149013368E-14, 0.000000000000000000, 16.00000000000000000 ) ) ;
#73 = PERSON_AND_ORGANIZATION ( #311, #370 ) ;
#74 = CARTESIAN_POINT ( 'NONE',  ( 4.073394895317000221E-15, 0.000000000000000000, 1.166666666666670071 ) ) ;
#75 = CARTESIAN_POINT ( 'NONE',  ( 5.586370142149013368E-14, 0.000000000000000000, 16.00000000000000000 ) ) ;
#76 = DIRECTION ( 'NONE',  ( 3.491481338843133355E-15, -0.000000000000000000, 1.000000000000000000 ) ) ;
#77 = AXIS2_PLACEMENT_3D ( 'NONE', #373, #290, #17 ) ;
#78 = AXIS2_PLACEMENT_3D ( 'NONE', #227, #320, #380 ) ;
#79 = CARTESIAN_POINT ( 'NONE',  ( 4.306160317906541130E-15, 0.000000000000000000, 1.233333333333336279 ) ) ;
#80 = CARTESIAN_POINT ( 'NONE',  ( 5.676736328760278475E-14, 0.000000000000000000, 16.25881904510251985 ) ) ;
#81 = ADVANCED_FACE ( 'NONE', ( #341, #231 ), #224, .F. ) ;
#82 = CARTESIAN_POINT ( 'NONE',  ( 5.586370142149003902E-15, 0.000000000000000000, 1.599999999999997202 ) ) ;
#83 = CARTESIAN_POINT ( 'NONE',  ( 1.563119784648301591, 0.000000000000000000, 1.499999999999996003 ) ) ;
#84 = ORIENTED_EDGE ( 'NONE', *, *, #169, .F. ) ;
#85 = DIRECTION ( 'NONE',  ( -3.491481338843133355E-15, 0.000000000000000000, -1.000000000000000000 ) ) ;
#86 = AXIS2_PLACEMENT_3D ( 'NONE', #49, #328, #110 ) ;
#87 = DIRECTION ( 'NONE',  ( 1.000000000000000000, 0.000000000000000000, -3.468071299249311808E-15 ) ) ;
#88 = DATE_AND_TIME ( #189, #350 ) ;
#89 = VERTEX_POINT ( 'NONE', #331 ) ;
#90 = ORIENTED_EDGE ( 'NONE', *, *, #70, .T. ) ;
#91 = APPROVAL ( #366, 'UNSPECIFIED' ) ;
#92 = CARTESIAN_POINT ( 'NONE',  ( 1.563119784648299371, 0.000000000000000000, 0.8999999999999925837 ) ) ;
#93 = ORIENTED_EDGE ( 'NONE', *, *, #180, .T. ) ;
#94 = CARTESIAN_POINT ( 'NONE',  ( 1.389914703891409031, 0.000000000000000000, -4.852861251220533782E-15 ) ) ;
#95 = EDGE_LOOP ( 'NONE', ( #101 ) ) ;
#96 = COORDINATED_UNIVERSAL_TIME_OFFSET ( 1, 0, .AHEAD. ) ;
#97 = APPROVAL ( #225, 'UNSPECIFIED' ) ;
#98 = APPLICATION_CONTEXT ( 'configuration controlled 3d designs of mechanical parts and assemblies' ) ;
#99 = EDGE_LOOP ( 'NONE', ( #84 ) ) ;
#100 = COORDINATED_UNIVERSAL_TIME_OFFSET ( 1, 0, .AHEAD. ) ;
#101 = ORIENTED_EDGE ( 'NONE', *, *, #336, .T. ) ;
#102 = CIRCLE ( 'NONE', #296, 2.999999999999995559 ) ;
#103 = FACE_OUTER_BOUND ( 'NONE', #160, .T. ) ;
#104 = DIRECTION ( 'NONE',  ( 1.000000000000000000, 0.000000000000000000, -3.491481338843133355E-15 ) ) ;
#105 =( GEOMETRIC_REPRESENTATION_CONTEXT ( 3 ) GLOBAL_UNCERTAINTY_ASSIGNED_CONTEXT ( ( #264 ) ) GLOBAL_UNIT_ASSIGNED_CONTEXT ( ( #275, #368, #212 ) ) REPRESENTATION_CONTEXT ( 'NONE', 'WORKASPACE' ) );
#106 = CARTESIAN_POINT ( 'NONE',  ( 1.990144363140586139E-13, 0.000000000000000000, 57.00000000000000000 ) ) ;
#107 = FACE_OUTER_BOUND ( 'NONE', #61, .T. ) ;
#108 = ADVANCED_FACE ( 'NONE', ( #164, #288 ), #191, .T. ) ;
#109 = FACE_OUTER_BOUND ( 'NONE', #184, .T. ) ;
#110 = DIRECTION ( 'NONE',  ( 1.000000000000000000, 0.000000000000000000, -3.468071299249311808E-15 ) ) ;
#111 = ORIENTED_EDGE ( 'NONE', *, *, #41, .F. ) ;
#112 = DESIGN_CONTEXT ( 'detailed design', #98, 'design' ) ;
#113 = VERTEX_POINT ( 'NONE', #83 ) ;
#114 = EDGE_LOOP ( 'NONE', ( #303 ) ) ;
#115 = DIRECTION ( 'NONE',  ( 1.000000000000000000, 0.000000000000000000, -2.891205793294682172E-15 ) ) ;
#116 = CYLINDRICAL_SURFACE ( 'NONE', #146, 1.563119784648296484 ) ;
#117 = CARTESIAN_POINT ( 'NONE',  ( 1.563119784648301813, 0.000000000000000000, 1.599999999999991873 ) ) ;
#118 = EDGE_LOOP ( 'NONE', ( #69 ) ) ;
#119 = AXIS2_PLACEMENT_3D ( 'NONE', #75, #76, #170 ) ;
#120 = PERSON_AND_ORGANIZATION ( #311, #370 ) ;
#121 = ADVANCED_FACE ( 'NONE', ( #46 ), #284, .F. ) ;
#122 = ORIENTED_EDGE ( 'NONE', *, *, #150, .T. ) ;
#123 = ORIENTED_EDGE ( 'NONE', *, *, #374, .T. ) ;
#124 = PRODUCT_DEFINITION_FORMATION_WITH_SPECIFIED_SOURCE ( 'ANY', '', #230, .NOT_KNOWN. ) ;
#125 = PERSON_AND_ORGANIZATION ( #311, #370 ) ;
#126 = EDGE_LOOP ( 'NONE', ( #365 ) ) ;
#127 = EDGE_CURVE ( 'NONE', #261, #261, #190, .T. ) ;
#128 = CONICAL_SURFACE ( 'NONE', #205, 2.024999999999999911, 1.047197551196603182 ) ;
#129 = CALENDAR_DATE ( 2023, 27, 9 ) ;
#130 = ORIENTED_EDGE ( 'NONE', *, *, #180, .F. ) ;
#131 = EDGE_LOOP ( 'NONE', ( #395 ) ) ;
#132 = FACE_OUTER_BOUND ( 'NONE', #126, .T. ) ;
#133 = CONICAL_SURFACE ( 'NONE', #45, 1.424074173710928148, 0.2617993877991430796 ) ;
#134 = DIRECTION ( 'NONE',  ( 3.491481338843133355E-15, -0.000000000000000000, 1.000000000000000000 ) ) ;
#135 = CC_DESIGN_DATE_AND_TIME_ASSIGNMENT ( #220, #338, ( #291 ) ) ;
#136 = DIRECTION ( 'NONE',  ( 1.000000000000000000, 0.000000000000000000, -3.533695969582385070E-15 ) ) ;
#137 = DIRECTION ( 'NONE',  ( -3.491481338843133355E-15, 0.000000000000000000, -1.000000000000000000 ) ) ;
#138 = EDGE_CURVE ( 'NONE', #113, #113, #292, .T. ) ;
#139 = DIRECTION ( 'NONE',  ( 1.000000000000000000, 0.000000000000000000, -3.491481338843132961E-15 ) ) ;
#140 = CIRCLE ( 'NONE', #14, 1.389999999999999902 ) ;
#141 = CYLINDRICAL_SURFACE ( 'NONE', #354, 2.999999999999997780 ) ;
#142 = CC_DESIGN_APPROVAL ( #91, ( #291 ) ) ;
#143 = LOCAL_TIME ( 10, 31, 51.00000000000000000, #333 ) ;
#144 = DIRECTION ( 'NONE',  ( -1.000000000000000000, 0.000000000000000000, 3.533695969582385070E-15 ) ) ;
#145 = DIRECTION ( 'NONE',  ( 1.000000000000000000, 0.000000000000000000, -4.625929269271489266E-15 ) ) ;
#146 = AXIS2_PLACEMENT_3D ( 'NONE', #394, #358, #349 ) ;
#147 = FACE_OUTER_BOUND ( 'NONE', #279, .T. ) ;
#148 = AXIS2_PLACEMENT_3D ( 'NONE', #236, #356, #233 ) ;
#149 = EDGE_LOOP ( 'NONE', ( #151 ) ) ;
#150 = EDGE_CURVE ( 'NONE', #269, #269, #64, .T. ) ;
#151 = ORIENTED_EDGE ( 'NONE', *, *, #336, .F. ) ;
#152 = CARTESIAN_POINT ( 'NONE',  ( 0.000000000000000000, 0.000000000000000000, 0.000000000000000000 ) ) ;
#153 = DIRECTION ( 'NONE',  ( 3.491481338843133355E-15, -0.000000000000000000, 1.000000000000000000 ) ) ;
#154 = PRODUCT_DEFINITION_SHAPE ( 'NONE', 'NONE',  #291 ) ;
#155 = EDGE_LOOP ( 'NONE', ( #301 ) ) ;
#156 = LOCAL_TIME ( 10, 31, 51.00000000000000000, #165 ) ;
#157 = DATE_AND_TIME ( #129, #143 ) ;
#158 = ORIENTED_EDGE ( 'NONE', *, *, #70, .F. ) ;
#159 = CALENDAR_DATE ( 2023, 27, 9 ) ;
#160 = EDGE_LOOP ( 'NONE', ( #67 ) ) ;
#161 = DIRECTION ( 'NONE',  ( 3.491481338843133355E-15, -0.000000000000000000, 1.000000000000000000 ) ) ;
#162 = PERSON_AND_ORGANIZATION_ROLE ( 'design_supplier' ) ;
#163 = CC_DESIGN_PERSON_AND_ORGANIZATION_ASSIGNMENT ( #125, #244, ( #230 ) ) ;
#164 = FACE_OUTER_BOUND ( 'NONE', #38, .T. ) ;
#165 = COORDINATED_UNIVERSAL_TIME_OFFSET ( 1, 0, .AHEAD. ) ;
#166 = AXIS2_PLACEMENT_3D ( 'NONE', #200, #377, #139 ) ;
#167 = CARTESIAN_POINT ( 'NONE',  ( 5.586370142149013368E-15, 1.563119784648296262, 1.599999999999999867 ) ) ;
#168 = FACE_BOUND ( 'NONE', #118, .T. ) ;
#169 = EDGE_CURVE ( 'NONE', #89, #89, #102, .T. ) ;
#170 = DIRECTION ( 'NONE',  ( 1.000000000000000000, 0.000000000000000000, -2.496005001405481347E-15 ) ) ;
#171 = CLOSED_SHELL ( 'NONE', ( #192, #249, #389, #20, #393, #281, #108, #265, #330, #259, #57, #81, #317, #302, #234, #121 ) ) ;
#172 = CARTESIAN_POINT ( 'NONE',  ( 1.990144363140586139E-13, 0.000000000000000000, 57.00000000000000000 ) ) ;
#173 = AXIS2_PLACEMENT_3D ( 'NONE', #314, #253, #289 ) ;
#174 = CYLINDRICAL_SURFACE ( 'NONE', #357, 1.563119784648296484 ) ;
#175 = DIRECTION ( 'NONE',  ( 1.000000000000000000, 0.000000000000000000, -2.436282474607867664E-15 ) ) ;
#176 = FACE_OUTER_BOUND ( 'NONE', #99, .T. ) ;
#177 = CIRCLE ( 'NONE', #6, 1.424074173710928148 ) ;
#178 = AXIS2_PLACEMENT_3D ( 'NONE', #82, #295, #385 ) ;
#179 = DIRECTION ( 'NONE',  ( 3.491481338843133355E-15, -0.000000000000000000, 1.000000000000000000 ) ) ;
#180 = EDGE_CURVE ( 'NONE', #187, #187, #263, .T. ) ;
#181 = CARTESIAN_POINT ( 'NONE',  ( 1.563119784648298705, 0.000000000000000000, 0.6999999999999938494 ) ) ;
#182 = ORIENTED_EDGE ( 'NONE', *, *, #344, .T. ) ;
#183 = MECHANICAL_CONTEXT ( 'NONE', #213, 'mechanical' ) ;
#184 = EDGE_LOOP ( 'NONE', ( #362 ) ) ;
#185 = CIRCLE ( 'NONE', #58, 1.563119784648296484 ) ;
#186 = CARTESIAN_POINT ( 'NONE',  ( 1.990144363140586139E-13, 0.000000000000000000, 57.00000000000000000 ) ) ;
#187 = VERTEX_POINT ( 'NONE', #34 ) ;
#188 = ORIENTED_EDGE ( 'NONE', *, *, #381, .T. ) ;
#189 = CALENDAR_DATE ( 2023, 27, 9 ) ;
#190 = CIRCLE ( 'NONE', #240, 2.024999999999999911 ) ;
#191 = CYLINDRICAL_SURFACE ( 'NONE', #270, 2.024999999999999911 ) ;
#192 = ADVANCED_FACE ( 'NONE', ( #109 ), #319, .F. ) ;
#193 = DATE_AND_TIME ( #222, #276 ) ;
#194 = DIRECTION ( 'NONE',  ( 3.491481338843133355E-15, -0.000000000000000000, 1.000000000000000000 ) ) ;
#195 = SECURITY_CLASSIFICATION_LEVEL ( 'unclassified' ) ;
#196 = DIRECTION ( 'NONE',  ( 3.491481338843133355E-15, -0.000000000000000000, 1.000000000000000000 ) ) ;
#197 = PERSON_AND_ORGANIZATION ( #311, #370 ) ;
#198 = AXIS2_PLACEMENT_3D ( 'NONE', #312, #134, #254 ) ;
#199 = CC_DESIGN_PERSON_AND_ORGANIZATION_ASSIGNMENT ( #278, #247, ( #291 ) ) ;
#200 = CARTESIAN_POINT ( 'NONE',  ( 0.000000000000000000, 0.000000000000000000, 0.000000000000000000 ) ) ;
#201 = DIRECTION ( 'NONE',  ( 1.000000000000000000, 0.000000000000000000, -3.491481338843133355E-15 ) ) ;
#202 = APPROVAL_PERSON_ORGANIZATION ( #300, #273, #39 ) ;
#203 = FACE_OUTER_BOUND ( 'NONE', #299, .T. ) ;
#204 = VERTEX_POINT ( 'NONE', #324 ) ;
#205 = AXIS2_PLACEMENT_3D ( 'NONE', #79, #85, #144 ) ;
#206 = CC_DESIGN_PERSON_AND_ORGANIZATION_ASSIGNMENT ( #255, #162, ( #124 ) ) ;
#207 = FACE_BOUND ( 'NONE', #305, .T. ) ;
#208 = DIRECTION ( 'NONE',  ( 3.491481338843133355E-15, -0.000000000000000000, 1.000000000000000000 ) ) ;
#209 = DIRECTION ( 'NONE',  ( 3.491481338843133355E-15, -0.000000000000000000, 1.000000000000000000 ) ) ;
#210 = EDGE_CURVE ( 'NONE', #282, #282, #375, .T. ) ;
#211 = AXIS2_PLACEMENT_3D ( 'NONE', #226, #11, #201 ) ;
#212 =( NAMED_UNIT ( * ) SI_UNIT ( $, .STERADIAN. ) SOLID_ANGLE_UNIT ( ) );
#213 = APPLICATION_CONTEXT ( 'configuration controlled 3d designs of mechanical parts and assemblies' ) ;
#214 = CARTESIAN_POINT ( 'NONE',  ( 1.424074173710984992, 0.000000000000000000, 16.25881904510251630 ) ) ;
#215 = EDGE_LOOP ( 'NONE', ( #221 ) ) ;
#216 = APPROVAL_ROLE ( '' ) ;
#217 = DIRECTION ( 'NONE',  ( 1.000000000000000000, 0.000000000000000000, -3.533695969582385070E-15 ) ) ;
#218 = CARTESIAN_POINT ( 'NONE',  ( 2.400000000000195755, 0.000000000000000000, 56.99999999999999289 ) ) ;
#219 = ORIENTED_EDGE ( 'NONE', *, *, #127, .T. ) ;
#220 = DATE_AND_TIME ( #159, #242 ) ;
#221 = ORIENTED_EDGE ( 'NONE', *, *, #138, .F. ) ;
#222 = CALENDAR_DATE ( 2023, 27, 9 ) ;
#223 = CARTESIAN_POINT ( 'NONE',  ( 4.306160317906541130E-15, 0.000000000000000000, 1.233333333333336279 ) ) ;
#224 = TOROIDAL_SURFACE ( 'NONE', #359, 2.389999999999997904, 1.000000000000000000 ) ;
#225 = APPROVAL_STATUS ( 'not_yet_approved' ) ;
#226 = CARTESIAN_POINT ( 'NONE',  ( 3.256450465799071861E-33, 0.000000000000000000, 9.326844825348725410E-19 ) ) ;
#227 = CARTESIAN_POINT ( 'NONE',  ( 1.990144363140586139E-13, 2.399999999999996803, 57.00000000000000000 ) ) ;
#228 = CC_DESIGN_APPROVAL ( #273, ( #124 ) ) ;
#229 = DIRECTION ( 'NONE',  ( 3.491481338843133355E-15, -0.000000000000000000, 1.000000000000000000 ) ) ;
#230 = PRODUCT ( '961192', '961192', '', ( #183 ) ) ;
#231 = FACE_OUTER_BOUND ( 'NONE', #33, .T. ) ;
#232 = FACE_OUTER_BOUND ( 'NONE', #7, .T. ) ;
#233 = DIRECTION ( 'NONE',  ( 1.000000000000000000, 0.000000000000000000, -3.426614273534433996E-15 ) ) ;
#234 = ADVANCED_FACE ( 'NONE', ( #168, #132 ), #323, .T. ) ;
#235 = DIRECTION ( 'NONE',  ( 3.491481338843133355E-15, -0.000000000000000000, 1.000000000000000000 ) ) ;
#236 = CARTESIAN_POINT ( 'NONE',  ( 1.990144363140586139E-13, 0.000000000000000000, 57.00000000000000000 ) ) ;
#237 = CC_DESIGN_DATE_AND_TIME_ASSIGNMENT ( #193, #12, ( #55 ) ) ;
#238 = FACE_OUTER_BOUND ( 'NONE', #131, .T. ) ;
#239 = ADVANCED_BREP_SHAPE_REPRESENTATION ( '961192', ( #252, #315 ), #105 ) ;
#240 = AXIS2_PLACEMENT_3D ( 'NONE', #285, #229, #13 ) ;
#241 = DIRECTION ( 'NONE',  ( 1.000000000000000000, 0.000000000000000000, -3.432006876932532217E-15 ) ) ;
#242 = LOCAL_TIME ( 10, 31, 51.00000000000000000, #96 ) ;
#243 = DIRECTION ( 'NONE',  ( -3.491481338843133355E-15, 0.000000000000000000, -1.000000000000000000 ) ) ;
#244 = PERSON_AND_ORGANIZATION_ROLE ( 'design_owner' ) ;
#245 = EDGE_LOOP ( 'NONE', ( #188 ) ) ;
#246 = CONICAL_SURFACE ( 'NONE', #390, 1.389914703891409031, 1.047197551196598075 ) ;
#247 = PERSON_AND_ORGANIZATION_ROLE ( 'creator' ) ;
#248 = EDGE_LOOP ( 'NONE', ( #352 ) ) ;
#249 = ADVANCED_FACE ( 'NONE', ( #103, #343 ), #246, .T. ) ;
#250 = DIRECTION ( 'NONE',  ( -1.000000000000000000, 0.000000000000000000, 3.480155121558409533E-15 ) ) ;
#251 = CC_DESIGN_APPROVAL ( #97, ( #55 ) ) ;
#252 = MANIFOLD_SOLID_BREP ( 'Corps-Déplacer/Copier1', #171 ) ;
#253 = DIRECTION ( 'NONE',  ( -3.491481338843133355E-15, 0.000000000000000000, -1.000000000000000000 ) ) ;
#254 = DIRECTION ( 'NONE',  ( 1.000000000000000000, 0.000000000000000000, -3.468071299249311808E-15 ) ) ;
#255 = PERSON_AND_ORGANIZATION ( #311, #370 ) ;
#256 = CARTESIAN_POINT ( 'NONE',  ( 0.000000000000000000, 0.000000000000000000, 0.000000000000000000 ) ) ;
#257 = DIRECTION ( 'NONE',  ( -1.000000000000000000, 0.000000000000000000, 3.491481338843133355E-15 ) ) ;
#258 = DIRECTION ( 'NONE',  ( 1.000000000000000000, 0.000000000000000000, -4.625929269271492422E-15 ) ) ;
#259 = ADVANCED_FACE ( 'NONE', ( #318, #44 ), #43, .F. ) ;
#260 = FACE_BOUND ( 'NONE', #28, .T. ) ;
#261 = VERTEX_POINT ( 'NONE', #388 ) ;
#262 = DIRECTION ( 'NONE',  ( 1.000000000000000000, 0.000000000000000000, -2.436282474607867664E-15 ) ) ;
#263 = CIRCLE ( 'NONE', #119, 1.389999999999998126 ) ;
#264 = UNCERTAINTY_MEASURE_WITH_UNIT (LENGTH_MEASURE( 1.000000000000000082E-05 ), #275, 'distance_accuracy_value', 'NONE');
#265 = ADVANCED_FACE ( 'NONE', ( #382, #107 ), #128, .T. ) ;
#266 = FACE_OUTER_BOUND ( 'NONE', #114, .T. ) ;
#267 = DIRECTION ( 'NONE',  ( 3.491481338843133355E-15, -0.000000000000000000, 1.000000000000000000 ) ) ;
#268 = ORIENTED_EDGE ( 'NONE', *, *, #210, .F. ) ;
#269 = VERTEX_POINT ( 'NONE', #94 ) ;
#270 = AXIS2_PLACEMENT_3D ( 'NONE', #106, #48, #348 ) ;
#271 = ORIENTED_EDGE ( 'NONE', *, *, #361, .T. ) ;
#272 = CARTESIAN_POINT ( 'NONE',  ( 2.025000000000003908, 0.000000000000000000, 1.166666666666662966 ) ) ;
#273 = APPROVAL ( #30, 'UNSPECIFIED' ) ;
#274 = EDGE_LOOP ( 'NONE', ( #90 ) ) ;
#275 =( LENGTH_UNIT ( ) NAMED_UNIT ( * ) SI_UNIT ( .MILLI., .METRE. ) );
#276 = LOCAL_TIME ( 10, 31, 51.00000000000000000, #100 ) ;
#277 = FACE_OUTER_BOUND ( 'NONE', #274, .T. ) ;
#278 = PERSON_AND_ORGANIZATION ( #311, #370 ) ;
#279 = EDGE_LOOP ( 'NONE', ( #369 ) ) ;
#280 = CIRCLE ( 'NONE', #178, 1.563119784648296262 ) ;
#281 = ADVANCED_FACE ( 'NONE', ( #232, #260 ), #1, .T. ) ;
#282 = VERTEX_POINT ( 'NONE', #272 ) ;
#283 = CARTESIAN_POINT ( 'NONE',  ( 7.730228471791748438E-14, 0.000000000000000000, 22.14025429777344911 ) ) ;
#284 = PLANE ( 'NONE',  #78 ) ;
#285 = CARTESIAN_POINT ( 'NONE',  ( 1.280209824242486635E-15, 0.000000000000000000, 0.3666666666666679175 ) ) ;
#286 = CIRCLE ( 'NONE', #77, 2.024999999999999911 ) ;
#287 = APPROVAL_DATE_TIME ( #345, #97 ) ;
#288 = FACE_OUTER_BOUND ( 'NONE', #53, .T. ) ;
#289 = DIRECTION ( 'NONE',  ( -1.000000000000000000, 0.000000000000000000, 4.625929269271492422E-15 ) ) ;
#290 = DIRECTION ( 'NONE',  ( 3.491481338843133355E-15, -0.000000000000000000, 1.000000000000000000 ) ) ;
#291 = PRODUCT_DEFINITION ( 'UNKNOWN', '', #124, #112 ) ;
#292 = CIRCLE ( 'NONE', #198, 1.563119784648296484 ) ;
#293 = CARTESIAN_POINT ( 'NONE',  ( 3.000000000000077272, 0.000000000000000000, 22.14025429777343845 ) ) ;
#294 = VERTEX_POINT ( 'NONE', #21 ) ;
#295 = DIRECTION ( 'NONE',  ( 3.491481338843133355E-15, -0.000000000000000000, 1.000000000000000000 ) ) ;
#296 = AXIS2_PLACEMENT_3D ( 'NONE', #384, #346, #258 ) ;
#297 = FACE_OUTER_BOUND ( 'NONE', #2, .T. ) ;
#298 = CARTESIAN_POINT ( 'NONE',  ( 1.990144363140586139E-13, 0.000000000000000000, 57.00000000000000000 ) ) ;
#299 = EDGE_LOOP ( 'NONE', ( #219 ) ) ;
#300 = PERSON_AND_ORGANIZATION ( #311, #370 ) ;
#301 = ORIENTED_EDGE ( 'NONE', *, *, #51, .F. ) ;
#302 = ADVANCED_FACE ( 'NONE', ( #176, #238 ), #141, .T. ) ;
#303 = ORIENTED_EDGE ( 'NONE', *, *, #10, .F. ) ;
#304 = VERTEX_POINT ( 'NONE', #92 ) ;
#305 = EDGE_LOOP ( 'NONE', ( #182 ) ) ;
#306 = VERTEX_POINT ( 'NONE', #214 ) ;
#307 = EDGE_LOOP ( 'NONE', ( #271 ) ) ;
#308 = CC_DESIGN_PERSON_AND_ORGANIZATION_ASSIGNMENT ( #197, #376, ( #124 ) ) ;
#309 = DIRECTION ( 'NONE',  ( 1.000000000000000000, 0.000000000000000000, 0.000000000000000000 ) ) ;
#310 = EDGE_LOOP ( 'NONE', ( #122 ) ) ;
#311 = PERSON ( 'UNSPECIFIED', 'UNSPECIFIED', 'UNSPECIFIED', ('UNSPECIFIED'), ('UNSPECIFIED'), ('UNSPECIFIED') ) ;
#312 = CARTESIAN_POINT ( 'NONE',  ( 5.237222008264704766E-15, 0.000000000000000000, 1.500000000000001332 ) ) ;
#313 = APPROVAL_ROLE ( '' ) ;
#314 = CARTESIAN_POINT ( 'NONE',  ( 1.969195475107527212E-13, 0.000000000000000000, 56.39999999999999858 ) ) ;
#315 = AXIS2_PLACEMENT_3D ( 'NONE', #152, #3, #309 ) ;
#316 = APPROVAL_DATE_TIME ( #88, #273 ) ;
#317 = ADVANCED_FACE ( 'NONE', ( #266, #207 ), #133, .T. ) ;
#318 = FACE_BOUND ( 'NONE', #155, .T. ) ;
#319 = PLANE ( 'NONE',  #211 ) ;
#320 = DIRECTION ( 'NONE',  ( -3.491481338843133355E-15, 0.000000000000000000, -1.000000000000000000 ) ) ;
#321 = CIRCLE ( 'NONE', #387, 2.399999999999996803 ) ;
#322 = FACE_OUTER_BOUND ( 'NONE', #248, .T. ) ;
#323 = CONICAL_SURFACE ( 'NONE', #173, 2.999999999999995559, 0.7853981633974447263 ) ;
#324 = CARTESIAN_POINT ( 'NONE',  ( 2.025000000000004352, 0.000000000000000000, 1.233333333333329174 ) ) ;
#325 = CARTESIAN_POINT ( 'NONE',  ( 3.142333204958813314E-15, 0.000000000000000000, 0.8999999999999980238 ) ) ;
#326 = APPROVAL_PERSON_ORGANIZATION ( #340, #97, #313 ) ;
#327 = VERTEX_POINT ( 'NONE', #293 ) ;
#328 = DIRECTION ( 'NONE',  ( 3.491481338843133355E-15, -0.000000000000000000, 1.000000000000000000 ) ) ;
#329 = ORIENTED_EDGE ( 'NONE', *, *, #210, .T. ) ;
#330 = ADVANCED_FACE ( 'NONE', ( #147, #297 ), #116, .T. ) ;
#331 = CARTESIAN_POINT ( 'NONE',  ( 3.000000000000192735, 0.000000000000000000, 56.39999999999998437 ) ) ;
#332 = FACE_OUTER_BOUND ( 'NONE', #386, .T. ) ;
#333 = COORDINATED_UNIVERSAL_TIME_OFFSET ( 1, 0, .AHEAD. ) ;
#334 = AXIS2_PLACEMENT_3D ( 'NONE', #223, #31, #217 ) ;
#335 = DIRECTION ( 'NONE',  ( 3.491481338843133355E-15, -0.000000000000000000, 1.000000000000000000 ) ) ;
#336 = EDGE_CURVE ( 'NONE', #32, #32, #185, .T. ) ;
#337 = ORIENTED_EDGE ( 'NONE', *, *, #138, .T. ) ;
#338 = DATE_TIME_ROLE ( 'creation_date' ) ;
#339 = EDGE_LOOP ( 'NONE', ( #130 ) ) ;
#340 = PERSON_AND_ORGANIZATION ( #311, #370 ) ;
#341 = FACE_OUTER_BOUND ( 'NONE', #23, .T. ) ;
#342 = AXIS2_PLACEMENT_3D ( 'NONE', #74, #194, #136 ) ;
#343 = FACE_BOUND ( 'NONE', #310, .T. ) ;
#344 = EDGE_CURVE ( 'NONE', #306, #306, #177, .T. ) ;
#345 = DATE_AND_TIME ( #8, #156 ) ;
#346 = DIRECTION ( 'NONE',  ( 3.491481338843133355E-15, -0.000000000000000000, 1.000000000000000000 ) ) ;
#347 = AXIS2_PLACEMENT_3D ( 'NONE', #325, #54, #25 ) ;
#348 = DIRECTION ( 'NONE',  ( 1.000000000000000000, 0.000000000000000000, -3.426614273534433996E-15 ) ) ;
#349 = DIRECTION ( 'NONE',  ( 1.000000000000000000, 0.000000000000000000, -4.439131263039119556E-15 ) ) ;
#350 = LOCAL_TIME ( 10, 31, 51.00000000000000000, #68 ) ;
#351 = DIRECTION ( 'NONE',  ( 1.000000000000000000, 0.000000000000000000, -4.439131263039119556E-15 ) ) ;
#352 = ORIENTED_EDGE ( 'NONE', *, *, #374, .F. ) ;
#353 = AXIS2_PLACEMENT_3D ( 'NONE', #283, #153, #4 ) ;
#354 = AXIS2_PLACEMENT_3D ( 'NONE', #298, #267, #145 ) ;
#355 = FACE_OUTER_BOUND ( 'NONE', #40, .T. ) ;
#356 = DIRECTION ( 'NONE',  ( 3.491481338843133355E-15, -0.000000000000000000, 1.000000000000000000 ) ) ;
#357 = AXIS2_PLACEMENT_3D ( 'NONE', #172, #179, #351 ) ;
#358 = DIRECTION ( 'NONE',  ( 3.491481338843133355E-15, -0.000000000000000000, 1.000000000000000000 ) ) ;
#359 = AXIS2_PLACEMENT_3D ( 'NONE', #72, #161, #104 ) ;
#360 = APPROVAL_DATE_TIME ( #157, #91 ) ;
#361 = EDGE_CURVE ( 'NONE', #60, #60, #280, .T. ) ;
#362 = ORIENTED_EDGE ( 'NONE', *, *, #150, .F. ) ;
#363 = APPLICATION_PROTOCOL_DEFINITION ( 'international standard', 'config_control_design', 1994, #98 ) ;
#364 = FACE_OUTER_BOUND ( 'NONE', #339, .T. ) ;
#365 = ORIENTED_EDGE ( 'NONE', *, *, #169, .T. ) ;
#366 = APPROVAL_STATUS ( 'not_yet_approved' ) ;
#367 = ORIENTED_EDGE ( 'NONE', *, *, #344, .F. ) ;
#368 =( NAMED_UNIT ( * ) PLANE_ANGLE_UNIT ( ) SI_UNIT ( $, .RADIAN. ) );
#369 = ORIENTED_EDGE ( 'NONE', *, *, #361, .F. ) ;
#370 = ORGANIZATION ( 'UNSPECIFIED', 'UNSPECIFIED', '' ) ;
#371 = CARTESIAN_POINT ( 'NONE',  ( 1.512975246832027346E-15, 0.000000000000000000, 0.4333333333333341808 ) ) ;
#372 = CIRCLE ( 'NONE', #353, 3.000000000000000000 ) ;
#373 = CARTESIAN_POINT ( 'NONE',  ( 1.512975246832027346E-15, 0.000000000000000000, 0.4333333333333341808 ) ) ;
#374 = EDGE_CURVE ( 'NONE', #304, #304, #36, .T. ) ;
#375 = CIRCLE ( 'NONE', #342, 2.024999999999999911 ) ;
#376 = PERSON_AND_ORGANIZATION_ROLE ( 'creator' ) ;
#377 = DIRECTION ( 'NONE',  ( 3.491481338843133355E-15, -0.000000000000000000, 1.000000000000000000 ) ) ;
#378 = SHAPE_DEFINITION_REPRESENTATION ( #154, #239 ) ;
#379 = CC_DESIGN_SECURITY_CLASSIFICATION ( #55, ( #124 ) ) ;
#380 = DIRECTION ( 'NONE',  ( -1.000000000000000000, 0.000000000000000000, 3.491481338843133355E-15 ) ) ;
#381 = EDGE_CURVE ( 'NONE', #65, #65, #321, .T. ) ;
#382 = FACE_BOUND ( 'NONE', #215, .T. ) ;
#383 = AXIS2_PLACEMENT_3D ( 'NONE', #186, #42, #15 ) ;
#384 = CARTESIAN_POINT ( 'NONE',  ( 1.969195475107527212E-13, 0.000000000000000000, 56.39999999999999858 ) ) ;
#385 = DIRECTION ( 'NONE',  ( 1.000000000000000000, 0.000000000000000000, -3.468071299249312202E-15 ) ) ;
#386 = EDGE_LOOP ( 'NONE', ( #35 ) ) ;
#387 = AXIS2_PLACEMENT_3D ( 'NONE', #19, #22, #115 ) ;
#388 = CARTESIAN_POINT ( 'NONE',  ( 2.025000000000001243, 0.000000000000000000, 0.3666666666666608676 ) ) ;
#389 = ADVANCED_FACE ( 'NONE', ( #355, #203 ), #391, .T. ) ;
#390 = AXIS2_PLACEMENT_3D ( 'NONE', #256, #196, #16 ) ;
#391 = CYLINDRICAL_SURFACE ( 'NONE', #148, 2.024999999999999911 ) ;
#392 = CARTESIAN_POINT ( 'NONE',  ( 5.676736328760278475E-14, 0.000000000000000000, 16.25881904510251985 ) ) ;
#393 = ADVANCED_FACE ( 'NONE', ( #322, #59 ), #174, .T. ) ;
#394 = CARTESIAN_POINT ( 'NONE',  ( 1.990144363140586139E-13, 0.000000000000000000, 57.00000000000000000 ) ) ;
#395 = ORIENTED_EDGE ( 'NONE', *, *, #10, .T. ) ;
ENDSEC;
END-ISO-10303-21;
