ISO-10303-21;
HEADER;
FILE_DESCRIPTION (( 'STEP AP203' ),
    '1' );
FILE_NAME ('961191.step',
    '2023-09-27T08:31:50',
    ( '' ),
    ( '' ),
    'SwSTEP 2.0',
    'SolidWorks 2022',
    '' );
FILE_SCHEMA (( 'CONFIG_CONTROL_DESIGN' ));
ENDSEC;

DATA;
#1 = CARTESIAN_POINT ( 'NONE',  ( 1.466422162314116009E-13, 0.000000000000000000, 42.00000000000000000 ) ) ;
#2 = ADVANCED_FACE ( 'NONE', ( #192, #314 ), #125, .T. ) ;
#3 = CARTESIAN_POINT ( 'NONE',  ( 4.469096113719210695E-14, 0.000000000000000000, 12.80000000000000071 ) ) ;
#4 = AXIS2_PLACEMENT_3D ( 'NONE', #208, #240, #340 ) ;
#5 = APPROVAL_DATE_TIME ( #225, #190 ) ;
#6 = EDGE_LOOP ( 'NONE', ( #258 ) ) ;
#7 = CONICAL_SURFACE ( 'NONE', #283, 1.584999999999999964, 1.047197551196596521 ) ;
#8 = AXIS2_PLACEMENT_3D ( 'NONE', #78, #143, #356 ) ;
#9 = EDGE_LOOP ( 'NONE', ( #310 ) ) ;
#10 = EDGE_CURVE ( 'NONE', #342, #342, #79, .T. ) ;
#11 = AXIS2_PLACEMENT_3D ( 'NONE', #244, #274, #363 ) ;
#12 =( LENGTH_UNIT ( ) NAMED_UNIT ( * ) SI_UNIT ( .MILLI., .METRE. ) );
#13 = DIRECTION ( 'NONE',  ( 3.491481338843133355E-15, -0.000000000000000000, 1.000000000000000000 ) ) ;
#14 = AXIS2_PLACEMENT_3D ( 'NONE', #275, #63, #339 ) ;
#15 = DIRECTION ( 'NONE',  ( 1.000000000000000000, 0.000000000000000000, -3.488600050268815712E-15 ) ) ;
#16 = CALENDAR_DATE ( 2023, 27, 9 ) ;
#17 = CYLINDRICAL_SURFACE ( 'NONE', #8, 1.999999999999998224 ) ;
#18 = LOCAL_TIME ( 10, 31, 50.00000000000000000, #292 ) ;
#19 = AXIS2_PLACEMENT_3D ( 'NONE', #168, #138, #261 ) ;
#20 = CARTESIAN_POINT ( 'NONE',  ( 2.749541554338979745E-15, 0.000000000000000000, 0.7875000000000034195 ) ) ;
#21 = FACE_OUTER_BOUND ( 'NONE', #220, .T. ) ;
#22 = FACE_OUTER_BOUND ( 'NONE', #67, .T. ) ;
#23 = CIRCLE ( 'NONE', #243, 1.180854811567259688 ) ;
#24 = ADVANCED_FACE ( 'NONE', ( #379, #74 ), #7, .T. ) ;
#25 = CARTESIAN_POINT ( 'NONE',  ( 1.323853340978020871E-15, 0.000000000000000000, 0.3791666666666665408 ) ) ;
#26 = VERTEX_POINT ( 'NONE', #393 ) ;
#27 = DIRECTION ( 'NONE',  ( 3.491481338843133355E-15, -0.000000000000000000, 1.000000000000000000 ) ) ;
#28 = VERTEX_POINT ( 'NONE', #144 ) ;
#29 = AXIS2_PLACEMENT_3D ( 'NONE', #204, #294, #200 ) ;
#30 = CARTESIAN_POINT ( 'NONE',  ( 1.466422162314116009E-13, 0.000000000000000000, 42.00000000000000000 ) ) ;
#31 = EDGE_CURVE ( 'NONE', #395, #395, #175, .T. ) ;
#32 = DIRECTION ( 'NONE',  ( 1.000000000000000000, 0.000000000000000000, -3.488600050268815712E-15 ) ) ;
#33 = EDGE_LOOP ( 'NONE', ( #165 ) ) ;
#34 = CC_DESIGN_DATE_AND_TIME_ASSIGNMENT ( #383, #45, ( #81 ) ) ;
#35 = CARTESIAN_POINT ( 'NONE',  ( 1.600000000000143752, 0.000000000000000000, 41.99999999999999289 ) ) ;
#36 = DATE_AND_TIME ( #182, #238 ) ;
#37 = EDGE_LOOP ( 'NONE', ( #189 ) ) ;
#38 = APPROVAL_STATUS ( 'not_yet_approved' ) ;
#39 = ORIENTED_EDGE ( 'NONE', *, *, #372, .T. ) ;
#40 = CLOSED_SHELL ( 'NONE', ( #62, #321, #289, #101, #324, #89, #333, #24, #257, #172, #131, #387, #151, #141, #2, #115 ) ) ;
#41 = PERSON_AND_ORGANIZATION ( #298, #312 ) ;
#42 = AXIS2_PLACEMENT_3D ( 'NONE', #86, #117, #335 ) ;
#43 = VERTEX_POINT ( 'NONE', #162 ) ;
#44 = DIRECTION ( 'NONE',  ( -1.000000000000000000, 0.000000000000000000, 3.557003972823106077E-15 ) ) ;
#45 = DATE_TIME_ROLE ( 'classification_date' ) ;
#46 = CARTESIAN_POINT ( 'NONE',  ( 5.772494562471367284E-14, 0.000000000000000000, 16.53308152689145771 ) ) ;
#47 = AXIS2_PLACEMENT_3D ( 'NONE', #3, #122, #93 ) ;
#48 = FACE_BOUND ( 'NONE', #156, .T. ) ;
#49 = CIRCLE ( 'NONE', #346, 1.584999999999999964 ) ;
#50 = DIRECTION ( 'NONE',  ( -1.000000000000000000, 0.000000000000000000, 3.491481338843133355E-15 ) ) ;
#51 = PRODUCT_DEFINITION ( 'UNKNOWN', '', #159, #109 ) ;
#52 = CARTESIAN_POINT ( 'NONE',  ( 4.559462300330473908E-14, 0.000000000000000000, 13.05881904510251523 ) ) ;
#53 = DIRECTION ( 'NONE',  ( -3.491481338843133355E-15, 0.000000000000000000, -1.000000000000000000 ) ) ;
#54 = CYLINDRICAL_SURFACE ( 'NONE', #29, 1.034999999999999032 ) ;
#55 = CIRCLE ( 'NONE', #280, 1.029300365904982639 ) ;
#56 = CARTESIAN_POINT ( 'NONE',  ( 1.466422162314116009E-13, 0.000000000000000000, 42.00000000000000000 ) ) ;
#57 = COORDINATED_UNIVERSAL_TIME_OFFSET ( 1, 0, .AHEAD. ) ;
#58 = CARTESIAN_POINT ( 'NONE',  ( 1.120183596212169716E-15, 0.000000000000000000, 0.3208333333333326931 ) ) ;
#59 = CIRCLE ( 'NONE', #193, 1.069074173710928388 ) ;
#60 = ADVANCED_BREP_SHAPE_REPRESENTATION ( '961191', ( #239, #272 ), #112 ) ;
#61 = CYLINDRICAL_SURFACE ( 'NONE', #177, 1.584999999999999964 ) ;
#62 = ADVANCED_FACE ( 'NONE', ( #374 ), #105, .F. ) ;
#63 = DIRECTION ( 'NONE',  ( 3.491481338843133355E-15, -0.000000000000000000, 1.000000000000000000 ) ) ;
#64 = CC_DESIGN_PERSON_AND_ORGANIZATION_ASSIGNMENT ( #41, #216, ( #51 ) ) ;
#65 = EDGE_LOOP ( 'NONE', ( #126 ) ) ;
#66 = CARTESIAN_POINT ( 'NONE',  ( 1.585000000000001297, 0.000000000000000000, 0.3791666666666609897 ) ) ;
#67 = EDGE_LOOP ( 'NONE', ( #197 ) ) ;
#68 = CIRCLE ( 'NONE', #97, 1.034999999999998366 ) ;
#69 = EDGE_LOOP ( 'NONE', ( #377 ) ) ;
#70 = APPLICATION_PROTOCOL_DEFINITION ( 'international standard', 'config_control_design', 1994, #142 ) ;
#71 = EDGE_LOOP ( 'NONE', ( #232 ) ) ;
#72 = CIRCLE ( 'NONE', #139, 1.034999999999999920 ) ;
#73 = APPROVAL_DATE_TIME ( #318, #390 ) ;
#74 = FACE_OUTER_BOUND ( 'NONE', #133, .T. ) ;
#75 = EDGE_CURVE ( 'NONE', #176, #176, #385, .T. ) ;
#76 = PERSON_AND_ORGANIZATION ( #298, #312 ) ;
#77 = ORIENTED_EDGE ( 'NONE', *, *, #103, .F. ) ;
#78 = CARTESIAN_POINT ( 'NONE',  ( 1.466422162314116009E-13, 0.000000000000000000, 42.00000000000000000 ) ) ;
#79 = CIRCLE ( 'NONE', #355, 2.000000000000000000 ) ;
#80 = FACE_BOUND ( 'NONE', #9, .T. ) ;
#81 = SECURITY_CLASSIFICATION ( '', '', #134 ) ;
#82 = DIRECTION ( 'NONE',  ( 1.000000000000000000, 0.000000000000000000, -3.491481338843133355E-15 ) ) ;
#83 = ORIENTED_EDGE ( 'NONE', *, *, #277, .T. ) ;
#84 = FACE_BOUND ( 'NONE', #71, .T. ) ;
#85 = CARTESIAN_POINT ( 'NONE',  ( 4.582569257231616473E-15, 0.000000000000000000, 1.312500000000001110 ) ) ;
#86 = CARTESIAN_POINT ( 'NONE',  ( 3.767890278168211853E-15, 0.000000000000000000, 1.079166666666665719 ) ) ;
#87 = CARTESIAN_POINT ( 'NONE',  ( 3.564220533402360304E-15, 0.000000000000000000, 1.020833333333331927 ) ) ;
#88 = CYLINDRICAL_SURFACE ( 'NONE', #14, 1.180854811567259466 ) ;
#89 = ADVANCED_FACE ( 'NONE', ( #330, #84 ), #186, .T. ) ;
#90 = FACE_OUTER_BOUND ( 'NONE', #187, .T. ) ;
#91 = SHAPE_DEFINITION_REPRESENTATION ( #106, #60 ) ;
#92 = ORIENTED_EDGE ( 'NONE', *, *, #361, .T. ) ;
#93 = DIRECTION ( 'NONE',  ( 1.000000000000000000, 0.000000000000000000, -3.491481338843133355E-15 ) ) ;
#94 = EDGE_LOOP ( 'NONE', ( #343 ) ) ;
#95 = CARTESIAN_POINT ( 'NONE',  ( 3.079693867700740941E-33, 0.000000000000000000, 8.820593807673525498E-19 ) ) ;
#96 = EDGE_LOOP ( 'NONE', ( #224 ) ) ;
#97 = AXIS2_PLACEMENT_3D ( 'NONE', #171, #202, #228 ) ;
#98 = CARTESIAN_POINT ( 'NONE',  ( 1.585000000000003517, 0.000000000000000000, 1.020833333333326376 ) ) ;
#99 = EDGE_LOOP ( 'NONE', ( #254 ) ) ;
#100 = VERTEX_POINT ( 'NONE', #129 ) ;
#101 = ADVANCED_FACE ( 'NONE', ( #80, #21 ), #273, .T. ) ;
#102 = EDGE_LOOP ( 'NONE', ( #195 ) ) ;
#103 = EDGE_CURVE ( 'NONE', #26, #26, #68, .T. ) ;
#104 = COORDINATED_UNIVERSAL_TIME_OFFSET ( 1, 0, .AHEAD. ) ;
#105 = PLANE ( 'NONE',  #337 ) ;
#106 = PRODUCT_DEFINITION_SHAPE ( 'NONE', 'NONE',  #51 ) ;
#107 = PERSON_AND_ORGANIZATION ( #298, #312 ) ;
#108 = DIRECTION ( 'NONE',  ( 1.000000000000000000, 0.000000000000000000, -3.561630325073155207E-15 ) ) ;
#109 = DESIGN_CONTEXT ( 'detailed design', #142, 'design' ) ;
#110 = AXIS2_PLACEMENT_3D ( 'NONE', #163, #381, #15 ) ;
#111 = FACE_OUTER_BOUND ( 'NONE', #222, .T. ) ;
#112 =( GEOMETRIC_REPRESENTATION_CONTEXT ( 3 ) GLOBAL_UNCERTAINTY_ASSIGNED_CONTEXT ( ( #214 ) ) GLOBAL_UNIT_ASSIGNED_CONTEXT ( ( #12, #188, #344 ) ) REPRESENTATION_CONTEXT ( 'NONE', 'WORKASPACE' ) );
#113 = DIRECTION ( 'NONE',  ( -1.000000000000000000, 0.000000000000000000, 3.491481338843133355E-15 ) ) ;
#114 = DIRECTION ( 'NONE',  ( 3.491481338843133355E-15, -0.000000000000000000, 1.000000000000000000 ) ) ;
#115 = ADVANCED_FACE ( 'NONE', ( #260 ), #173, .F. ) ;
#116 = VERTEX_POINT ( 'NONE', #191 ) ;
#117 = DIRECTION ( 'NONE',  ( 3.491481338843133355E-15, -0.000000000000000000, 1.000000000000000000 ) ) ;
#118 = APPROVAL_ROLE ( '' ) ;
#119 = CARTESIAN_POINT ( 'NONE',  ( 2.000000000000057732, 0.000000000000000000, 16.53308152689145061 ) ) ;
#120 = FACE_BOUND ( 'NONE', #359, .T. ) ;
#121 = CIRCLE ( 'NONE', #42, 1.584999999999999964 ) ;
#122 = DIRECTION ( 'NONE',  ( 3.491481338843133355E-15, -0.000000000000000000, 1.000000000000000000 ) ) ;
#123 = CARTESIAN_POINT ( 'NONE',  ( 1.180854811567264351, 0.000000000000000000, 1.399999999999994360 ) ) ;
#124 = CARTESIAN_POINT ( 'NONE',  ( 3.767890278168211853E-15, 0.000000000000000000, 1.079166666666665719 ) ) ;
#125 = CONICAL_SURFACE ( 'NONE', #263, 1.999999999999996669, 0.7853981633974504994 ) ;
#126 = ORIENTED_EDGE ( 'NONE', *, *, #170, .T. ) ;
#127 = PERSON_AND_ORGANIZATION_ROLE ( 'design_owner' ) ;
#128 = EDGE_LOOP ( 'NONE', ( #152 ) ) ;
#129 = CARTESIAN_POINT ( 'NONE',  ( 1.180854811567262352, 0.000000000000000000, 0.7874999999999993117 ) ) ;
#130 = DIRECTION ( 'NONE',  ( 1.000000000000000000, 0.000000000000000000, -3.469446951953614189E-15 ) ) ;
#131 = ADVANCED_FACE ( 'NONE', ( #334, #140 ), #54, .T. ) ;
#132 = DIRECTION ( 'NONE',  ( 1.000000000000000000, 0.000000000000000000, 0.000000000000000000 ) ) ;
#133 = EDGE_LOOP ( 'NONE', ( #83 ) ) ;
#134 = SECURITY_CLASSIFICATION_LEVEL ( 'unclassified' ) ;
#135 = FACE_OUTER_BOUND ( 'NONE', #96, .T. ) ;
#136 = LOCAL_TIME ( 10, 31, 50.00000000000000000, #104 ) ;
#137 = DIRECTION ( 'NONE',  ( 3.491481338843133355E-15, -0.000000000000000000, 1.000000000000000000 ) ) ;
#138 = DIRECTION ( 'NONE',  ( 3.491481338843133355E-15, -0.000000000000000000, 1.000000000000000000 ) ) ;
#139 = AXIS2_PLACEMENT_3D ( 'NONE', #328, #296, #108 ) ;
#140 = FACE_OUTER_BOUND ( 'NONE', #65, .T. ) ;
#141 = ADVANCED_FACE ( 'NONE', ( #384, #135 ), #17, .T. ) ;
#142 = APPLICATION_CONTEXT ( 'configuration controlled 3d designs of mechanical parts and assemblies' ) ;
#143 = DIRECTION ( 'NONE',  ( 3.491481338843133355E-15, -0.000000000000000000, 1.000000000000000000 ) ) ;
#144 = CARTESIAN_POINT ( 'NONE',  ( 2.000000000000141664, 0.000000000000000000, 41.60000000000000142 ) ) ;
#145 = DIRECTION ( 'NONE',  ( 3.491481338843133355E-15, -0.000000000000000000, 1.000000000000000000 ) ) ;
#146 = AXIS2_PLACEMENT_3D ( 'NONE', #262, #137, #231 ) ;
#147 = APPROVAL_PERSON_ORGANIZATION ( #185, #390, #378 ) ;
#148 = VERTEX_POINT ( 'NONE', #392 ) ;
#149 = DIRECTION ( 'NONE',  ( 1.000000000000000000, 0.000000000000000000, -4.377851043474592034E-15 ) ) ;
#150 = DIRECTION ( 'NONE',  ( 1.000000000000000000, 0.000000000000000000, -3.557003972823106077E-15 ) ) ;
#151 = ADVANCED_FACE ( 'NONE', ( #331, #360 ), #319, .T. ) ;
#152 = ORIENTED_EDGE ( 'NONE', *, *, #277, .F. ) ;
#153 = VERTEX_POINT ( 'NONE', #35 ) ;
#154 = ORIENTED_EDGE ( 'NONE', *, *, #170, .F. ) ;
#155 = CARTESIAN_POINT ( 'NONE',  ( 0.000000000000000000, 0.000000000000000000, 0.000000000000000000 ) ) ;
#156 = EDGE_LOOP ( 'NONE', ( #154 ) ) ;
#157 = AXIS2_PLACEMENT_3D ( 'NONE', #169, #265, #299 ) ;
#158 = CARTESIAN_POINT ( 'NONE',  ( 1.585000000000003739, 0.000000000000000000, 1.079166666666660168 ) ) ;
#159 = PRODUCT_DEFINITION_FORMATION_WITH_SPECIFIED_SOURCE ( 'ANY', '', #198, .NOT_KNOWN. ) ;
#160 = EDGE_LOOP ( 'NONE', ( #389 ) ) ;
#161 = EDGE_CURVE ( 'NONE', #28, #28, #285, .T. ) ;
#162 = CARTESIAN_POINT ( 'NONE',  ( 1.585000000000001075, 0.000000000000000000, 0.3208333333333271420 ) ) ;
#163 = CARTESIAN_POINT ( 'NONE',  ( 1.323853340978020871E-15, 0.000000000000000000, 0.3791666666666665408 ) ) ;
#164 = PERSON_AND_ORGANIZATION ( #298, #312 ) ;
#165 = ORIENTED_EDGE ( 'NONE', *, *, #242, .F. ) ;
#166 = DIRECTION ( 'NONE',  ( -3.491481338843133355E-15, 0.000000000000000000, -1.000000000000000000 ) ) ;
#167 = LOCAL_TIME ( 10, 31, 50.00000000000000000, #194 ) ;
#168 = CARTESIAN_POINT ( 'NONE',  ( 2.749541554338979745E-15, 0.000000000000000000, 0.7875000000000034195 ) ) ;
#169 = CARTESIAN_POINT ( 'NONE',  ( 1.452456236958743728E-13, 0.000000000000000000, 41.60000000000000853 ) ) ;
#170 = EDGE_CURVE ( 'NONE', #148, #148, #72, .T. ) ;
#171 = CARTESIAN_POINT ( 'NONE',  ( 4.469096113719210695E-14, 0.000000000000000000, 12.79999999999999893 ) ) ;
#172 = ADVANCED_FACE ( 'NONE', ( #48, #22 ), #358, .F. ) ;
#173 = PLANE ( 'NONE',  #201 ) ;
#174 = CARTESIAN_POINT ( 'NONE',  ( 0.000000000000000000, 0.000000000000000000, 0.000000000000000000 ) ) ;
#175 = CIRCLE ( 'NONE', #110, 1.584999999999999964 ) ;
#176 = VERTEX_POINT ( 'NONE', #305 ) ;
#177 = AXIS2_PLACEMENT_3D ( 'NONE', #30, #365, #149 ) ;
#178 = CARTESIAN_POINT ( 'NONE',  ( 0.000000000000000000, 0.000000000000000000, 0.000000000000000000 ) ) ;
#179 = DIRECTION ( 'NONE',  ( 3.491481338843133355E-15, -0.000000000000000000, 1.000000000000000000 ) ) ;
#180 = APPLICATION_CONTEXT ( 'configuration controlled 3d designs of mechanical parts and assemblies' ) ;
#181 = EDGE_CURVE ( 'NONE', #116, #116, #59, .T. ) ;
#182 = CALENDAR_DATE ( 2023, 27, 9 ) ;
#183 = ORIENTED_EDGE ( 'NONE', *, *, #161, .T. ) ;
#184 = CC_DESIGN_APPROVAL ( #190, ( #159 ) ) ;
#185 = PERSON_AND_ORGANIZATION ( #298, #312 ) ;
#186 = CONICAL_SURFACE ( 'NONE', #19, 1.180854811567259688, 1.047197551196609400 ) ;
#187 = EDGE_LOOP ( 'NONE', ( #267 ) ) ;
#188 =( NAMED_UNIT ( * ) PLANE_ANGLE_UNIT ( ) SI_UNIT ( $, .RADIAN. ) );
#189 = ORIENTED_EDGE ( 'NONE', *, *, #350, .T. ) ;
#190 = APPROVAL ( #313, 'UNSPECIFIED' ) ;
#191 = CARTESIAN_POINT ( 'NONE',  ( 1.069074173710973907, 0.000000000000000000, 13.05881904510251168 ) ) ;
#192 = FACE_BOUND ( 'NONE', #99, .T. ) ;
#193 = AXIS2_PLACEMENT_3D ( 'NONE', #234, #114, #235 ) ;
#194 = COORDINATED_UNIVERSAL_TIME_OFFSET ( 1, 0, .AHEAD. ) ;
#195 = ORIENTED_EDGE ( 'NONE', *, *, #361, .F. ) ;
#196 = PERSON_AND_ORGANIZATION ( #298, #312 ) ;
#197 = ORIENTED_EDGE ( 'NONE', *, *, #242, .T. ) ;
#198 = PRODUCT ( '961191', '961191', '', ( #316 ) ) ;
#199 = DIRECTION ( 'NONE',  ( -1.000000000000000000, 0.000000000000000000, 3.488600050268815712E-15 ) ) ;
#200 = DIRECTION ( 'NONE',  ( 1.000000000000000000, 0.000000000000000000, -6.704245317784768219E-15 ) ) ;
#201 = AXIS2_PLACEMENT_3D ( 'NONE', #332, #53, #50 ) ;
#202 = DIRECTION ( 'NONE',  ( 3.491481338843133355E-15, -0.000000000000000000, 1.000000000000000000 ) ) ;
#203 = CC_DESIGN_PERSON_AND_ORGANIZATION_ASSIGNMENT ( #223, #127, ( #198 ) ) ;
#204 = CARTESIAN_POINT ( 'NONE',  ( 1.466422162314116009E-13, 0.000000000000000000, 42.00000000000000000 ) ) ;
#205 = DIRECTION ( 'NONE',  ( 3.491481338843133355E-15, -0.000000000000000000, 1.000000000000000000 ) ) ;
#206 = DIRECTION ( 'NONE',  ( 1.000000000000000000, 0.000000000000000000, -5.876161773603444131E-15 ) ) ;
#207 = AXIS2_PLACEMENT_3D ( 'NONE', #1, #179, #241 ) ;
#208 = CARTESIAN_POINT ( 'NONE',  ( 1.466422162314116009E-13, 0.000000000000000000, 42.00000000000000000 ) ) ;
#209 = CYLINDRICAL_SURFACE ( 'NONE', #329, 1.180854811567259466 ) ;
#210 = FACE_OUTER_BOUND ( 'NONE', #369, .T. ) ;
#211 = ORIENTED_EDGE ( 'NONE', *, *, #75, .F. ) ;
#212 = EDGE_CURVE ( 'NONE', #100, #100, #23, .T. ) ;
#213 = FACE_OUTER_BOUND ( 'NONE', #6, .T. ) ;
#214 = UNCERTAINTY_MEASURE_WITH_UNIT (LENGTH_MEASURE( 1.000000000000000082E-05 ), #12, 'distance_accuracy_value', 'NONE');
#215 = EDGE_LOOP ( 'NONE', ( #92 ) ) ;
#216 = PERSON_AND_ORGANIZATION_ROLE ( 'creator' ) ;
#217 = DIRECTION ( 'NONE',  ( 3.491481338843133355E-15, -0.000000000000000000, 1.000000000000000000 ) ) ;
#218 = APPROVAL_PERSON_ORGANIZATION ( #256, #190, #281 ) ;
#219 = VERTEX_POINT ( 'NONE', #279 ) ;
#220 = EDGE_LOOP ( 'NONE', ( #317 ) ) ;
#221 = AXIS2_PLACEMENT_3D ( 'NONE', #58, #27, #32 ) ;
#222 = EDGE_LOOP ( 'NONE', ( #371 ) ) ;
#223 = PERSON_AND_ORGANIZATION ( #298, #312 ) ;
#224 = ORIENTED_EDGE ( 'NONE', *, *, #10, .T. ) ;
#225 = DATE_AND_TIME ( #380, #167 ) ;
#226 = EDGE_LOOP ( 'NONE', ( #183 ) ) ;
#227 = PERSON_AND_ORGANIZATION_ROLE ( 'creator' ) ;
#228 = DIRECTION ( 'NONE',  ( 1.000000000000000000, 0.000000000000000000, -3.352122658892386082E-15 ) ) ;
#229 = DIRECTION ( 'NONE',  ( -3.491481338843133355E-15, 0.000000000000000000, -1.000000000000000000 ) ) ;
#230 = AXIS2_PLACEMENT_3D ( 'NONE', #388, #166, #113 ) ;
#231 = DIRECTION ( 'NONE',  ( 1.000000000000000000, 0.000000000000000000, -3.488971053077045224E-15 ) ) ;
#232 = ORIENTED_EDGE ( 'NONE', *, *, #212, .T. ) ;
#233 = CC_DESIGN_PERSON_AND_ORGANIZATION_ASSIGNMENT ( #196, #259, ( #81 ) ) ;
#234 = CARTESIAN_POINT ( 'NONE',  ( 4.559462300330473908E-14, 0.000000000000000000, 13.05881904510251523 ) ) ;
#235 = DIRECTION ( 'NONE',  ( 1.000000000000000000, 0.000000000000000000, -3.245281793601472897E-15 ) ) ;
#236 = FACE_OUTER_BOUND ( 'NONE', #102, .T. ) ;
#237 = CALENDAR_DATE ( 2023, 27, 9 ) ;
#238 = LOCAL_TIME ( 10, 31, 50.00000000000000000, #375 ) ;
#239 = MANIFOLD_SOLID_BREP ( 'Corps-Déplacer/Copier1', #40 ) ;
#240 = DIRECTION ( 'NONE',  ( 3.491481338843133355E-15, -0.000000000000000000, 1.000000000000000000 ) ) ;
#241 = DIRECTION ( 'NONE',  ( 1.000000000000000000, 0.000000000000000000, -4.336808689942025625E-15 ) ) ;
#242 = EDGE_CURVE ( 'NONE', #311, #311, #301, .T. ) ;
#243 = AXIS2_PLACEMENT_3D ( 'NONE', #20, #205, #362 ) ;
#244 = CARTESIAN_POINT ( 'NONE',  ( 2.138532320041425885E-15, 0.000000000000000000, 0.6125000000000019318 ) ) ;
#245 = CC_DESIGN_APPROVAL ( #325, ( #81 ) ) ;
#246 = CC_DESIGN_PERSON_AND_ORGANIZATION_ASSIGNMENT ( #76, #326, ( #159 ) ) ;
#247 = DIRECTION ( 'NONE',  ( 3.491481338843133355E-15, -0.000000000000000000, 1.000000000000000000 ) ) ;
#248 = PRODUCT_RELATED_PRODUCT_CATEGORY ( 'detail', '', ( #198 ) ) ;
#249 = VERTEX_POINT ( 'NONE', #158 ) ;
#250 = DIRECTION ( 'NONE',  ( -3.491481338843133355E-15, 0.000000000000000000, -1.000000000000000000 ) ) ;
#251 = ORIENTED_EDGE ( 'NONE', *, *, #10, .F. ) ;
#252 = CC_DESIGN_APPROVAL ( #390, ( #51 ) ) ;
#253 = CARTESIAN_POINT ( 'NONE',  ( 1.029300365904982639, 0.000000000000000000, -3.593783019621656040E-15 ) ) ;
#254 = ORIENTED_EDGE ( 'NONE', *, *, #350, .F. ) ;
#255 = EDGE_LOOP ( 'NONE', ( #352 ) ) ;
#256 = PERSON_AND_ORGANIZATION ( #298, #312 ) ;
#257 = ADVANCED_FACE ( 'NONE', ( #386, #111 ), #209, .T. ) ;
#258 = ORIENTED_EDGE ( 'NONE', *, *, #31, .F. ) ;
#259 = PERSON_AND_ORGANIZATION_ROLE ( 'classification_officer' ) ;
#260 = FACE_OUTER_BOUND ( 'NONE', #37, .T. ) ;
#261 = DIRECTION ( 'NONE',  ( 1.000000000000000000, 0.000000000000000000, -3.488971053077044435E-15 ) ) ;
#262 = CARTESIAN_POINT ( 'NONE',  ( 4.888073874380381175E-15, 0.000000000000000000, 1.399999999999998579 ) ) ;
#263 = AXIS2_PLACEMENT_3D ( 'NONE', #288, #320, #282 ) ;
#264 = CC_DESIGN_DATE_AND_TIME_ASSIGNMENT ( #36, #351, ( #51 ) ) ;
#265 = DIRECTION ( 'NONE',  ( 3.491481338843133355E-15, -0.000000000000000000, 1.000000000000000000 ) ) ;
#266 = APPROVAL_PERSON_ORGANIZATION ( #107, #325, #118 ) ;
#267 = ORIENTED_EDGE ( 'NONE', *, *, #212, .F. ) ;
#268 = DIRECTION ( 'NONE',  ( 3.491481338843133355E-15, -0.000000000000000000, 1.000000000000000000 ) ) ;
#269 = FACE_OUTER_BOUND ( 'NONE', #293, .T. ) ;
#270 = FACE_OUTER_BOUND ( 'NONE', #69, .T. ) ;
#271 = TOROIDAL_SURFACE ( 'NONE', #47, 2.034999999999998810, 1.000000000000000000 ) ;
#272 = AXIS2_PLACEMENT_3D ( 'NONE', #155, #348, #132 ) ;
#273 = CONICAL_SURFACE ( 'NONE', #295, 1.584999999999999964, 1.047197551196596743 ) ;
#274 = DIRECTION ( 'NONE',  ( 3.491481338843133355E-15, -0.000000000000000000, 1.000000000000000000 ) ) ;
#275 = CARTESIAN_POINT ( 'NONE',  ( 1.466422162314116009E-13, 0.000000000000000000, 42.00000000000000000 ) ) ;
#276 = APPROVAL_DATE_TIME ( #366, #325 ) ;
#277 = EDGE_CURVE ( 'NONE', #249, #249, #121, .T. ) ;
#278 = AXIS2_PLACEMENT_3D ( 'NONE', #85, #354, #300 ) ;
#279 = CARTESIAN_POINT ( 'NONE',  ( 1.180854811567261686, 0.000000000000000000, 0.6124999999999978240 ) ) ;
#280 = AXIS2_PLACEMENT_3D ( 'NONE', #174, #370, #304 ) ;
#281 = APPROVAL_ROLE ( '' ) ;
#282 = DIRECTION ( 'NONE',  ( -1.000000000000000000, 0.000000000000000000, 3.469446951953620105E-15 ) ) ;
#283 = AXIS2_PLACEMENT_3D ( 'NONE', #124, #250, #44 ) ;
#284 = CALENDAR_DATE ( 2023, 27, 9 ) ;
#285 = CIRCLE ( 'NONE', #157, 1.999999999999996669 ) ;
#286 = EDGE_LOOP ( 'NONE', ( #347 ) ) ;
#287 = APPLICATION_PROTOCOL_DEFINITION ( 'international standard', 'config_control_design', 1994, #180 ) ;
#288 = CARTESIAN_POINT ( 'NONE',  ( 1.452456236958743728E-13, 0.000000000000000000, 41.60000000000000853 ) ) ;
#289 = ADVANCED_FACE ( 'NONE', ( #213, #364 ), #61, .T. ) ;
#290 = CONICAL_SURFACE ( 'NONE', #297, 1.029300365904982639, 1.047197551196600518 ) ;
#291 = EDGE_LOOP ( 'NONE', ( #211 ) ) ;
#292 = COORDINATED_UNIVERSAL_TIME_OFFSET ( 1, 0, .AHEAD. ) ;
#293 = EDGE_LOOP ( 'NONE', ( #39 ) ) ;
#294 = DIRECTION ( 'NONE',  ( 3.491481338843133355E-15, -0.000000000000000000, 1.000000000000000000 ) ) ;
#295 = AXIS2_PLACEMENT_3D ( 'NONE', #25, #229, #199 ) ;
#296 = DIRECTION ( 'NONE',  ( 3.491481338843133355E-15, -0.000000000000000000, 1.000000000000000000 ) ) ;
#297 = AXIS2_PLACEMENT_3D ( 'NONE', #178, #368, #309 ) ;
#298 = PERSON ( 'UNSPECIFIED', 'UNSPECIFIED', 'UNSPECIFIED', ('UNSPECIFIED'), ('UNSPECIFIED'), ('UNSPECIFIED') ) ;
#299 = DIRECTION ( 'NONE',  ( 1.000000000000000000, 0.000000000000000000, -3.469446951953620105E-15 ) ) ;
#300 = DIRECTION ( 'NONE',  ( 1.000000000000000000, 0.000000000000000000, -3.488971053077044435E-15 ) ) ;
#301 = CIRCLE ( 'NONE', #146, 1.180854811567259466 ) ;
#302 = EDGE_CURVE ( 'NONE', #219, #219, #306, .T. ) ;
#303 = CYLINDRICAL_SURFACE ( 'NONE', #4, 1.584999999999999964 ) ;
#304 = DIRECTION ( 'NONE',  ( 1.000000000000000000, 0.000000000000000000, -3.491481338843133355E-15 ) ) ;
#305 = CARTESIAN_POINT ( 'NONE',  ( 1.180854811567264129, 0.000000000000000000, 1.312499999999997113 ) ) ;
#306 = CIRCLE ( 'NONE', #11, 1.180854811567259466 ) ;
#307 = FACE_OUTER_BOUND ( 'NONE', #128, .T. ) ;
#308 = CC_DESIGN_PERSON_AND_ORGANIZATION_ASSIGNMENT ( #164, #227, ( #159 ) ) ;
#309 = DIRECTION ( 'NONE',  ( 1.000000000000000000, 0.000000000000000000, -3.491481338843133355E-15 ) ) ;
#310 = ORIENTED_EDGE ( 'NONE', *, *, #302, .F. ) ;
#311 = VERTEX_POINT ( 'NONE', #123 ) ;
#312 = ORGANIZATION ( 'UNSPECIFIED', 'UNSPECIFIED', '' ) ;
#313 = APPROVAL_STATUS ( 'not_yet_approved' ) ;
#314 = FACE_OUTER_BOUND ( 'NONE', #226, .T. ) ;
#315 = CIRCLE ( 'NONE', #207, 1.599999999999997202 ) ;
#316 = MECHANICAL_CONTEXT ( 'NONE', #180, 'mechanical' ) ;
#317 = ORIENTED_EDGE ( 'NONE', *, *, #31, .T. ) ;
#318 = DATE_AND_TIME ( #284, #136 ) ;
#319 = CONICAL_SURFACE ( 'NONE', #367, 1.069074173710928388, 0.2617993877991429685 ) ;
#320 = DIRECTION ( 'NONE',  ( -3.491481338843133355E-15, 0.000000000000000000, -1.000000000000000000 ) ) ;
#321 = ADVANCED_FACE ( 'NONE', ( #236, #120 ), #290, .T. ) ;
#322 = VERTEX_POINT ( 'NONE', #253 ) ;
#323 = ORIENTED_EDGE ( 'NONE', *, *, #302, .T. ) ;
#324 = ADVANCED_FACE ( 'NONE', ( #90, #210 ), #88, .T. ) ;
#325 = APPROVAL ( #341, 'UNSPECIFIED' ) ;
#326 = PERSON_AND_ORGANIZATION_ROLE ( 'design_supplier' ) ;
#327 = EDGE_LOOP ( 'NONE', ( #353 ) ) ;
#328 = CARTESIAN_POINT ( 'NONE',  ( 4.888073874380381175E-15, 0.000000000000000000, 1.399999999999998579 ) ) ;
#329 = AXIS2_PLACEMENT_3D ( 'NONE', #56, #247, #206 ) ;
#330 = FACE_OUTER_BOUND ( 'NONE', #255, .T. ) ;
#331 = FACE_OUTER_BOUND ( 'NONE', #376, .T. ) ;
#332 = CARTESIAN_POINT ( 'NONE',  ( 1.466422162314116009E-13, 1.599999999999997202, 42.00000000000000000 ) ) ;
#333 = ADVANCED_FACE ( 'NONE', ( #307, #269 ), #303, .T. ) ;
#334 = FACE_OUTER_BOUND ( 'NONE', #349, .T. ) ;
#335 = DIRECTION ( 'NONE',  ( 1.000000000000000000, 0.000000000000000000, -3.557003972823106077E-15 ) ) ;
#336 = FACE_OUTER_BOUND ( 'NONE', #94, .T. ) ;
#337 = AXIS2_PLACEMENT_3D ( 'NONE', #95, #217, #82 ) ;
#338 = EDGE_CURVE ( 'NONE', #322, #322, #55, .T. ) ;
#339 = DIRECTION ( 'NONE',  ( 1.000000000000000000, 0.000000000000000000, -5.876161773603444131E-15 ) ) ;
#340 = DIRECTION ( 'NONE',  ( 1.000000000000000000, 0.000000000000000000, -4.377851043474592034E-15 ) ) ;
#341 = APPROVAL_STATUS ( 'not_yet_approved' ) ;
#342 = VERTEX_POINT ( 'NONE', #119 ) ;
#343 = ORIENTED_EDGE ( 'NONE', *, *, #181, .F. ) ;
#344 =( NAMED_UNIT ( * ) SI_UNIT ( $, .STERADIAN. ) SOLID_ANGLE_UNIT ( ) );
#345 = ORIENTED_EDGE ( 'NONE', *, *, #338, .T. ) ;
#346 = AXIS2_PLACEMENT_3D ( 'NONE', #87, #145, #150 ) ;
#347 = ORIENTED_EDGE ( 'NONE', *, *, #161, .F. ) ;
#348 = DIRECTION ( 'NONE',  ( 0.000000000000000000, 0.000000000000000000, 1.000000000000000000 ) ) ;
#349 = EDGE_LOOP ( 'NONE', ( #77 ) ) ;
#350 = EDGE_CURVE ( 'NONE', #153, #153, #315, .T. ) ;
#351 = DATE_TIME_ROLE ( 'creation_date' ) ;
#352 = ORIENTED_EDGE ( 'NONE', *, *, #372, .F. ) ;
#353 = ORIENTED_EDGE ( 'NONE', *, *, #181, .T. ) ;
#354 = DIRECTION ( 'NONE',  ( 3.491481338843133355E-15, -0.000000000000000000, 1.000000000000000000 ) ) ;
#355 = AXIS2_PLACEMENT_3D ( 'NONE', #46, #13, #130 ) ;
#356 = DIRECTION ( 'NONE',  ( 1.000000000000000000, 0.000000000000000000, -3.469446951953617344E-15 ) ) ;
#357 = LOCAL_TIME ( 10, 31, 50.00000000000000000, #57 ) ;
#358 = PLANE ( 'NONE',  #230 ) ;
#359 = EDGE_LOOP ( 'NONE', ( #345 ) ) ;
#360 = FACE_BOUND ( 'NONE', #327, .T. ) ;
#361 = EDGE_CURVE ( 'NONE', #43, #43, #394, .T. ) ;
#362 = DIRECTION ( 'NONE',  ( 1.000000000000000000, 0.000000000000000000, -3.488971053077044435E-15 ) ) ;
#363 = DIRECTION ( 'NONE',  ( 1.000000000000000000, 0.000000000000000000, -3.488971053077045224E-15 ) ) ;
#364 = FACE_OUTER_BOUND ( 'NONE', #215, .T. ) ;
#365 = DIRECTION ( 'NONE',  ( 3.491481338843133355E-15, -0.000000000000000000, 1.000000000000000000 ) ) ;
#366 = DATE_AND_TIME ( #237, #357 ) ;
#367 = AXIS2_PLACEMENT_3D ( 'NONE', #52, #268, #391 ) ;
#368 = DIRECTION ( 'NONE',  ( 3.491481338843133355E-15, -0.000000000000000000, 1.000000000000000000 ) ) ;
#369 = EDGE_LOOP ( 'NONE', ( #323 ) ) ;
#370 = DIRECTION ( 'NONE',  ( 3.491481338843133355E-15, -0.000000000000000000, 1.000000000000000000 ) ) ;
#371 = ORIENTED_EDGE ( 'NONE', *, *, #75, .T. ) ;
#372 = EDGE_CURVE ( 'NONE', #373, #373, #49, .T. ) ;
#373 = VERTEX_POINT ( 'NONE', #98 ) ;
#374 = FACE_OUTER_BOUND ( 'NONE', #160, .T. ) ;
#375 = COORDINATED_UNIVERSAL_TIME_OFFSET ( 1, 0, .AHEAD. ) ;
#376 = EDGE_LOOP ( 'NONE', ( #251 ) ) ;
#377 = ORIENTED_EDGE ( 'NONE', *, *, #103, .T. ) ;
#378 = APPROVAL_ROLE ( '' ) ;
#379 = FACE_BOUND ( 'NONE', #291, .T. ) ;
#380 = CALENDAR_DATE ( 2023, 27, 9 ) ;
#381 = DIRECTION ( 'NONE',  ( 3.491481338843133355E-15, -0.000000000000000000, 1.000000000000000000 ) ) ;
#382 = CC_DESIGN_SECURITY_CLASSIFICATION ( #81, ( #159 ) ) ;
#383 = DATE_AND_TIME ( #16, #18 ) ;
#384 = FACE_OUTER_BOUND ( 'NONE', #286, .T. ) ;
#385 = CIRCLE ( 'NONE', #278, 1.180854811567259688 ) ;
#386 = FACE_OUTER_BOUND ( 'NONE', #33, .T. ) ;
#387 = ADVANCED_FACE ( 'NONE', ( #336, #270 ), #271, .F. ) ;
#388 = CARTESIAN_POINT ( 'NONE',  ( 4.888073874380386697E-15, 1.180854811567259466, 1.399999999999999911 ) ) ;
#389 = ORIENTED_EDGE ( 'NONE', *, *, #338, .F. ) ;
#390 = APPROVAL ( #38, 'UNSPECIFIED' ) ;
#391 = DIRECTION ( 'NONE',  ( 1.000000000000000000, 0.000000000000000000, -3.245281793601472897E-15 ) ) ;
#392 = CARTESIAN_POINT ( 'NONE',  ( 1.035000000000004805, 0.000000000000000000, 1.399999999999994804 ) ) ;
#393 = CARTESIAN_POINT ( 'NONE',  ( 1.035000000000042997, 0.000000000000000000, 12.79999999999999538 ) ) ;
#394 = CIRCLE ( 'NONE', #221, 1.584999999999999964 ) ;
#395 = VERTEX_POINT ( 'NONE', #66 ) ;
ENDSEC;
END-ISO-10303-21;
