ISO-10303-21;
HEADER;
FILE_DESCRIPTION (( 'STEP AP203' ),
    '1' );
FILE_NAME ('961190.step',
    '2023-09-27T08:31:49',
    ( '' ),
    ( '' ),
    'SwSTEP 2.0',
    'SolidWorks 2022',
    '' );
FILE_SCHEMA (( 'CONFIG_CONTROL_DESIGN' ));
ENDSEC;

DATA;
#1 = DIRECTION ( 'NONE',  ( 1.000000000000000000, 0.000000000000000000, -3.450126754535575604E-15 ) ) ;
#2 = CIRCLE ( 'NONE', #190, 1.999999999999996669 ) ;
#3 = DIRECTION ( 'NONE',  ( 3.491481338843133355E-15, -0.000000000000000000, 1.000000000000000000 ) ) ;
#4 = EDGE_LOOP ( 'NONE', ( #263 ) ) ;
#5 = AXIS2_PLACEMENT_3D ( 'NONE', #376, #99, #170 ) ;
#6 = SHAPE_DEFINITION_REPRESENTATION ( #359, #143 ) ;
#7 = FACE_OUTER_BOUND ( 'NONE', #250, .T. ) ;
#8 = EDGE_CURVE ( 'NONE', #106, #106, #44, .T. ) ;
#9 = EDGE_LOOP ( 'NONE', ( #260 ) ) ;
#10 = DATE_AND_TIME ( #40, #245 ) ;
#11 = DIRECTION ( 'NONE',  ( -3.491481338843133355E-15, 0.000000000000000000, -1.000000000000000000 ) ) ;
#12 = FACE_OUTER_BOUND ( 'NONE', #357, .T. ) ;
#13 = FACE_OUTER_BOUND ( 'NONE', #17, .T. ) ;
#14 = AXIS2_PLACEMENT_3D ( 'NONE', #356, #264, #85 ) ;
#15 = DIRECTION ( 'NONE',  ( 3.491481338843133355E-15, -0.000000000000000000, 1.000000000000000000 ) ) ;
#16 = VERTEX_POINT ( 'NONE', #208 ) ;
#17 = EDGE_LOOP ( 'NONE', ( #287 ) ) ;
#18 = DIRECTION ( 'NONE',  ( 1.000000000000000000, 0.000000000000000000, -3.491481338843133355E-15 ) ) ;
#19 = DIRECTION ( 'NONE',  ( 1.000000000000000000, 0.000000000000000000, -3.491481338843133355E-15 ) ) ;
#20 = CARTESIAN_POINT ( 'NONE',  ( 0.9113248654051875342, 0.000000000000000000, 0.5624999999999973355 ) ) ;
#21 = DIRECTION ( 'NONE',  ( 3.491481338843133355E-15, -0.000000000000000000, 1.000000000000000000 ) ) ;
#22 = FACE_OUTER_BOUND ( 'NONE', #115, .T. ) ;
#23 = LOCAL_TIME ( 10, 31, 49.00000000000000000, #169 ) ;
#24 = EDGE_CURVE ( 'NONE', #344, #344, #148, .T. ) ;
#25 = CARTESIAN_POINT ( 'NONE',  ( 2.691350198691576176E-15, 0.000000000000000000, 0.7708333333333317050 ) ) ;
#26 = APPROVAL ( #265, 'UNSPECIFIED' ) ;
#27 = DIRECTION ( 'NONE',  ( 1.000000000000000000, 0.000000000000000000, -3.469446951953617344E-15 ) ) ;
#28 = AXIS2_PLACEMENT_3D ( 'NONE', #111, #229, #19 ) ;
#29 = AXIS2_PLACEMENT_3D ( 'NONE', #247, #167, #220 ) ;
#30 = PRODUCT_DEFINITION_FORMATION_WITH_SPECIFIED_SOURCE ( 'ANY', '', #71, .NOT_KNOWN. ) ;
#31 = CC_DESIGN_PERSON_AND_ORGANIZATION_ASSIGNMENT ( #144, #351, ( #71 ) ) ;
#32 = EDGE_LOOP ( 'NONE', ( #80 ) ) ;
#33 = PERSON_AND_ORGANIZATION ( #334, #62 ) ;
#34 = DIRECTION ( 'NONE',  ( -1.000000000000000000, 0.000000000000000000, 3.478481970057660322E-15 ) ) ;
#35 = ORIENTED_EDGE ( 'NONE', *, *, #156, .F. ) ;
#36 = AXIS2_PLACEMENT_3D ( 'NONE', #65, #41, #194 ) ;
#37 = CONICAL_SURFACE ( 'NONE', #139, 0.8030716899321304059, 1.047197551196594967 ) ;
#38 = DIRECTION ( 'NONE',  ( -1.000000000000000000, 0.000000000000000000, 3.523657060577889411E-15 ) ) ;
#39 = ORIENTED_EDGE ( 'NONE', *, *, #161, .F. ) ;
#40 = CALENDAR_DATE ( 2023, 27, 9 ) ;
#41 = DIRECTION ( 'NONE',  ( 3.491481338843133355E-15, -0.000000000000000000, 1.000000000000000000 ) ) ;
#42 = EDGE_LOOP ( 'NONE', ( #70 ) ) ;
#43 = CARTESIAN_POINT ( 'NONE',  ( 1.466422162314116009E-13, 0.000000000000000000, 42.00000000000000000 ) ) ;
#44 = CIRCLE ( 'NONE', #28, 0.8030716899321304059 ) ;
#45 = SECURITY_CLASSIFICATION_LEVEL ( 'unclassified' ) ;
#46 = CONICAL_SURFACE ( 'NONE', #14, 0.8440741737109288545, 0.2617993877991429685 ) ;
#47 = DIRECTION ( 'NONE',  ( 3.491481338843133355E-15, -0.000000000000000000, 1.000000000000000000 ) ) ;
#48 = VERTEX_POINT ( 'NONE', #329 ) ;
#49 = CARTESIAN_POINT ( 'NONE',  ( 9.456095292700081182E-16, 0.000000000000000000, 0.2708333333333312609 ) ) ;
#50 = COORDINATED_UNIVERSAL_TIME_OFFSET ( 1, 0, .AHEAD. ) ;
#51 = EDGE_LOOP ( 'NONE', ( #39 ) ) ;
#52 = FACE_OUTER_BOUND ( 'NONE', #51, .T. ) ;
#53 = CARTESIAN_POINT ( 'NONE',  ( 1.200000000000002398, 0.000000000000000000, 0.7291666666666654084 ) ) ;
#54 = EDGE_LOOP ( 'NONE', ( #355 ) ) ;
#55 = AXIS2_PLACEMENT_3D ( 'NONE', #380, #145, #266 ) ;
#56 = ADVANCED_FACE ( 'NONE', ( #391, #292 ), #294, .T. ) ;
#57 =( LENGTH_UNIT ( ) NAMED_UNIT ( * ) SI_UNIT ( .MILLI., .METRE. ) );
#58 = ADVANCED_FACE ( 'NONE', ( #192, #310 ), #101, .T. ) ;
#59 = CARTESIAN_POINT ( 'NONE',  ( 1.466422162314116009E-13, 0.000000000000000000, 42.00000000000000000 ) ) ;
#60 = CIRCLE ( 'NONE', #280, 2.000000000000000000 ) ;
#61 = DIRECTION ( 'NONE',  ( 3.491481338843133355E-15, -0.000000000000000000, 1.000000000000000000 ) ) ;
#62 = ORGANIZATION ( 'UNSPECIFIED', 'UNSPECIFIED', '' ) ;
#63 = PRODUCT_RELATED_PRODUCT_CATEGORY ( 'detail', '', ( #71 ) ) ;
#64 = ORIENTED_EDGE ( 'NONE', *, *, #89, .T. ) ;
#65 = CARTESIAN_POINT ( 'NONE',  ( 3.351822085289406759E-14, 0.000000000000000000, 9.599999999999997868 ) ) ;
#66 = ORIENTED_EDGE ( 'NONE', *, *, #217, .T. ) ;
#67 = PERSON_AND_ORGANIZATION ( #334, #62 ) ;
#68 = ADVANCED_FACE ( 'NONE', ( #135, #7 ), #97, .F. ) ;
#69 = DIRECTION ( 'NONE',  ( -1.000000000000000000, 0.000000000000000000, 3.491481338843133355E-15 ) ) ;
#70 = ORIENTED_EDGE ( 'NONE', *, *, #254, .T. ) ;
#71 = PRODUCT ( '961190', '961190', '', ( #110 ) ) ;
#72 = SECURITY_CLASSIFICATION ( '', '', #45 ) ;
#73 = PERSON_AND_ORGANIZATION_ROLE ( 'design_supplier' ) ;
#74 = FACE_OUTER_BOUND ( 'NONE', #164, .T. ) ;
#75 = VERTEX_POINT ( 'NONE', #317 ) ;
#76 = DIRECTION ( 'NONE',  ( 3.491481338843133355E-15, -0.000000000000000000, 1.000000000000000000 ) ) ;
#77 = EDGE_LOOP ( 'NONE', ( #236 ) ) ;
#78 = CARTESIAN_POINT ( 'NONE',  ( 9.456095292700081182E-16, 0.000000000000000000, 0.2708333333333312609 ) ) ;
#79 = CARTESIAN_POINT ( 'NONE',  ( 2.000000000000141664, 0.000000000000000000, 41.60000000000000142 ) ) ;
#80 = ORIENTED_EDGE ( 'NONE', *, *, #89, .F. ) ;
#81 = CC_DESIGN_SECURITY_CLASSIFICATION ( #72, ( #30 ) ) ;
#82 = DIRECTION ( 'NONE',  ( 3.491481338843133355E-15, -0.000000000000000000, 1.000000000000000000 ) ) ;
#83 = EDGE_LOOP ( 'NONE', ( #372 ) ) ;
#84 = ADVANCED_FACE ( 'NONE', ( #13, #74 ), #316, .T. ) ;
#85 = DIRECTION ( 'NONE',  ( 1.000000000000000000, 0.000000000000000000, -4.110357904567045900E-15 ) ) ;
#86 = ORIENTED_EDGE ( 'NONE', *, *, #216, .T. ) ;
#87 = DIRECTION ( 'NONE',  ( 3.491481338843133355E-15, -0.000000000000000000, 1.000000000000000000 ) ) ;
#88 = CYLINDRICAL_SURFACE ( 'NONE', #165, 1.199999999999999956 ) ;
#89 = EDGE_CURVE ( 'NONE', #75, #75, #303, .T. ) ;
#90 = PRODUCT_DEFINITION ( 'UNKNOWN', '', #30, #124 ) ;
#91 = CIRCLE ( 'NONE', #29, 0.9113248654051855357 ) ;
#92 = EDGE_LOOP ( 'NONE', ( #352 ) ) ;
#93 = CALENDAR_DATE ( 2023, 27, 9 ) ;
#94 = FACE_OUTER_BOUND ( 'NONE', #328, .T. ) ;
#95 = EDGE_CURVE ( 'NONE', #159, #159, #205, .T. ) ;
#96 = ADVANCED_FACE ( 'NONE', ( #382, #163 ), #241, .T. ) ;
#97 = PLANE ( 'NONE',  #388 ) ;
#98 = ORIENTED_EDGE ( 'NONE', *, *, #342, .F. ) ;
#99 = DIRECTION ( 'NONE',  ( -3.491481338843133355E-15, 0.000000000000000000, -1.000000000000000000 ) ) ;
#100 = CARTESIAN_POINT ( 'NONE',  ( 0.8030716899321304059, 0.000000000000000000, -2.803909819151252198E-15 ) ) ;
#101 = CONICAL_SURFACE ( 'NONE', #299, 1.199999999999999956, 1.047197551196593412 ) ;
#102 = LOCAL_TIME ( 10, 31, 49.00000000000000000, #336 ) ;
#103 = DATE_TIME_ROLE ( 'classification_date' ) ;
#104 = EDGE_CURVE ( 'NONE', #360, #360, #189, .T. ) ;
#105 = DIRECTION ( 'NONE',  ( 1.000000000000000000, 0.000000000000000000, -5.782411586589357244E-15 ) ) ;
#106 = VERTEX_POINT ( 'NONE', #100 ) ;
#107 = PERSON_AND_ORGANIZATION ( #334, #62 ) ;
#108 = CARTESIAN_POINT ( 'NONE',  ( 1.963958253099264484E-15, 0.000000000000000000, 0.5625000000000004441 ) ) ;
#109 = EDGE_CURVE ( 'NONE', #16, #16, #125, .T. ) ;
#110 = MECHANICAL_CONTEXT ( 'NONE', #173, 'mechanical' ) ;
#111 = CARTESIAN_POINT ( 'NONE',  ( 0.000000000000000000, 0.000000000000000000, 0.000000000000000000 ) ) ;
#112 = CC_DESIGN_PERSON_AND_ORGANIZATION_ASSIGNMENT ( #200, #73, ( #30 ) ) ;
#113 = PLANE ( 'NONE',  #182 ) ;
#114 = CARTESIAN_POINT ( 'NONE',  ( 2.000000000000049294, 0.000000000000000000, 14.17279295859447075 ) ) ;
#115 = EDGE_LOOP ( 'NONE', ( #86 ) ) ;
#116 = VERTEX_POINT ( 'NONE', #354 ) ;
#117 = ORIENTED_EDGE ( 'NONE', *, *, #332, .T. ) ;
#118 = DIRECTION ( 'NONE',  ( 1.000000000000000000, 0.000000000000000000, -5.782411586589357244E-15 ) ) ;
#119 = VERTEX_POINT ( 'NONE', #231 ) ;
#120 = FACE_BOUND ( 'NONE', #232, .T. ) ;
#121 = CARTESIAN_POINT ( 'NONE',  ( 1.452456236958743728E-13, 0.000000000000000000, 41.60000000000000853 ) ) ;
#122 = CC_DESIGN_APPROVAL ( #158, ( #30 ) ) ;
#123 = EDGE_CURVE ( 'NONE', #262, #262, #130, .T. ) ;
#124 = DESIGN_CONTEXT ( 'detailed design', #244, 'design' ) ;
#125 = CIRCLE ( 'NONE', #174, 0.8440741737109288545 ) ;
#126 = AXIS2_PLACEMENT_3D ( 'NONE', #319, #202, #343 ) ;
#127 = LOCAL_TIME ( 10, 31, 49.00000000000000000, #224 ) ;
#128 = ORIENTED_EDGE ( 'NONE', *, *, #156, .T. ) ;
#129 = DIRECTION ( 'NONE',  ( 1.000000000000000000, 0.000000000000000000, -3.480155121558409139E-15 ) ) ;
#130 = CIRCLE ( 'NONE', #368, 0.8100000000000000533 ) ;
#131 = EDGE_LOOP ( 'NONE', ( #226 ) ) ;
#132 = CALENDAR_DATE ( 2023, 27, 9 ) ;
#133 = DIRECTION ( 'NONE',  ( 1.000000000000000000, 0.000000000000000000, 0.000000000000000000 ) ) ;
#134 = EDGE_LOOP ( 'NONE', ( #35 ) ) ;
#135 = FACE_BOUND ( 'NONE', #177, .T. ) ;
#136 = EDGE_LOOP ( 'NONE', ( #375 ) ) ;
#137 = PERSON_AND_ORGANIZATION_ROLE ( 'creator' ) ;
#138 = DIRECTION ( 'NONE',  ( 3.491481338843133355E-15, -0.000000000000000000, 1.000000000000000000 ) ) ;
#139 = AXIS2_PLACEMENT_3D ( 'NONE', #240, #87, #387 ) ;
#140 = DIRECTION ( 'NONE',  ( 0.000000000000000000, 0.000000000000000000, 1.000000000000000000 ) ) ;
#141 = ORIENTED_EDGE ( 'NONE', *, *, #8, .T. ) ;
#142 = FACE_BOUND ( 'NONE', #171, .T. ) ;
#143 = ADVANCED_BREP_SHAPE_REPRESENTATION ( '961190', ( #330, #369 ), #365 ) ;
#144 = PERSON_AND_ORGANIZATION ( #334, #62 ) ;
#145 = DIRECTION ( 'NONE',  ( 3.491481338843133355E-15, -0.000000000000000000, 1.000000000000000000 ) ) ;
#146 =( NAMED_UNIT ( * ) PLANE_ANGLE_UNIT ( ) SI_UNIT ( $, .RADIAN. ) );
#147 = EDGE_LOOP ( 'NONE', ( #128 ) ) ;
#148 = CIRCLE ( 'NONE', #222, 1.199999999999999956 ) ;
#149 = DIRECTION ( 'NONE',  ( 3.491481338843133355E-15, -0.000000000000000000, 1.000000000000000000 ) ) ;
#150 = CC_DESIGN_PERSON_AND_ORGANIZATION_ASSIGNMENT ( #33, #370, ( #90 ) ) ;
#151 = CC_DESIGN_DATE_AND_TIME_ASSIGNMENT ( #350, #103, ( #72 ) ) ;
#152 = CARTESIAN_POINT ( 'NONE',  ( 1.452456236958743728E-13, 0.000000000000000000, 41.60000000000000853 ) ) ;
#153 = CARTESIAN_POINT ( 'NONE',  ( 1.466422162314116009E-13, 0.000000000000000000, 42.00000000000000000 ) ) ;
#154 = AXIS2_PLACEMENT_3D ( 'NONE', #172, #312, #38 ) ;
#155 = CONICAL_SURFACE ( 'NONE', #363, 1.999999999999996669, 0.7853981633974504994 ) ;
#156 = EDGE_CURVE ( 'NONE', #269, #269, #395, .T. ) ;
#157 = AXIS2_PLACEMENT_3D ( 'NONE', #261, #289, #105 ) ;
#158 = APPROVAL ( #309, 'UNSPECIFIED' ) ;
#159 = VERTEX_POINT ( 'NONE', #277 ) ;
#160 = ADVANCED_FACE ( 'NONE', ( #340, #94 ), #320, .T. ) ;
#161 = EDGE_CURVE ( 'NONE', #392, #392, #91, .T. ) ;
#162 = APPROVAL_ROLE ( '' ) ;
#163 = FACE_BOUND ( 'NONE', #136, .T. ) ;
#164 = EDGE_LOOP ( 'NONE', ( #117 ) ) ;
#165 = AXIS2_PLACEMENT_3D ( 'NONE', #214, #234, #118 ) ;
#166 = PERSON_AND_ORGANIZATION ( #334, #62 ) ;
#167 = DIRECTION ( 'NONE',  ( 3.491481338843133355E-15, -0.000000000000000000, 1.000000000000000000 ) ) ;
#168 = ORIENTED_EDGE ( 'NONE', *, *, #217, .F. ) ;
#169 = COORDINATED_UNIVERSAL_TIME_OFFSET ( 1, 0, .AHEAD. ) ;
#170 = DIRECTION ( 'NONE',  ( -1.000000000000000000, 0.000000000000000000, 3.491481338843133355E-15 ) ) ;
#171 = EDGE_LOOP ( 'NONE', ( #338 ) ) ;
#172 = CARTESIAN_POINT ( 'NONE',  ( 2.691350198691576176E-15, 0.000000000000000000, 0.7708333333333317050 ) ) ;
#173 = APPLICATION_CONTEXT ( 'configuration controlled 3d designs of mechanical parts and assemblies' ) ;
#174 = AXIS2_PLACEMENT_3D ( 'NONE', #374, #76, #227 ) ;
#175 = CARTESIAN_POINT ( 'NONE',  ( 3.491481338843136511E-15, 0.000000000000000000, 1.000000000000000888 ) ) ;
#176 = PERSON_AND_ORGANIZATION ( #334, #62 ) ;
#177 = EDGE_LOOP ( 'NONE', ( #341 ) ) ;
#178 = FACE_OUTER_BOUND ( 'NONE', #284, .T. ) ;
#179 = CARTESIAN_POINT ( 'NONE',  ( 0.8100000000000325828, 0.000000000000000000, 9.599999999999994316 ) ) ;
#180 = EDGE_LOOP ( 'NONE', ( #98 ) ) ;
#181 = FACE_OUTER_BOUND ( 'NONE', #131, .T. ) ;
#182 = AXIS2_PLACEMENT_3D ( 'NONE', #230, #82, #324 ) ;
#183 = AXIS2_PLACEMENT_3D ( 'NONE', #366, #61, #1 ) ;
#184 = DIRECTION ( 'NONE',  ( 3.491481338843133355E-15, -0.000000000000000000, 1.000000000000000000 ) ) ;
#185 = CARTESIAN_POINT ( 'NONE',  ( 3.351822085289407390E-14, 0.000000000000000000, 9.599999999999999645 ) ) ;
#186 = AXIS2_PLACEMENT_3D ( 'NONE', #153, #353, #27 ) ;
#187 = ADVANCED_FACE ( 'NONE', ( #283 ), #256, .F. ) ;
#188 = CARTESIAN_POINT ( 'NONE',  ( 1.527523085743872223E-15, 0.000000000000000000, 0.4375000000000003886 ) ) ;
#189 = CIRCLE ( 'NONE', #36, 0.8099999999999990541 ) ;
#190 = AXIS2_PLACEMENT_3D ( 'NONE', #121, #184, #268 ) ;
#191 = PERSON_AND_ORGANIZATION_ROLE ( 'classification_officer' ) ;
#192 = FACE_BOUND ( 'NONE', #180, .T. ) ;
#193 = COORDINATED_UNIVERSAL_TIME_OFFSET ( 1, 0, .AHEAD. ) ;
#194 = DIRECTION ( 'NONE',  ( 1.000000000000000000, 0.000000000000000000, -4.283267841918046932E-15 ) ) ;
#195 = AXIS2_PLACEMENT_3D ( 'NONE', #108, #371, #315 ) ;
#196 = APPROVAL_PERSON_ORGANIZATION ( #107, #158, #162 ) ;
#197 = CALENDAR_DATE ( 2023, 27, 9 ) ;
#198 = DIRECTION ( 'NONE',  ( -3.491481338843133355E-15, 0.000000000000000000, -1.000000000000000000 ) ) ;
#199 = EDGE_LOOP ( 'NONE', ( #325 ) ) ;
#200 = PERSON_AND_ORGANIZATION ( #334, #62 ) ;
#201 = DIRECTION ( 'NONE',  ( 3.491481338843133355E-15, -0.000000000000000000, 1.000000000000000000 ) ) ;
#202 = DIRECTION ( 'NONE',  ( 3.491481338843133355E-15, -0.000000000000000000, 1.000000000000000000 ) ) ;
#203 = APPLICATION_PROTOCOL_DEFINITION ( 'international standard', 'config_control_design', 1994, #244 ) ;
#204 = EDGE_LOOP ( 'NONE', ( #210 ) ) ;
#205 = CIRCLE ( 'NONE', #298, 0.9113248654051855357 ) ;
#206 = APPROVAL_PERSON_ORGANIZATION ( #176, #26, #386 ) ;
#207 = DIRECTION ( 'NONE',  ( -3.491481338843133355E-15, 0.000000000000000000, -1.000000000000000000 ) ) ;
#208 = CARTESIAN_POINT ( 'NONE',  ( 0.8440741737109632714, 0.000000000000000000, 9.858819045102514167 ) ) ;
#209 = ORIENTED_EDGE ( 'NONE', *, *, #123, .T. ) ;
#210 = ORIENTED_EDGE ( 'NONE', *, *, #342, .T. ) ;
#211 = FACE_BOUND ( 'NONE', #134, .T. ) ;
#212 = CARTESIAN_POINT ( 'NONE',  ( 0.8100000000000034950, 0.000000000000000000, 0.9999999999999981126 ) ) ;
#213 = FACE_OUTER_BOUND ( 'NONE', #204, .T. ) ;
#214 = CARTESIAN_POINT ( 'NONE',  ( 1.466422162314116009E-13, 0.000000000000000000, 42.00000000000000000 ) ) ;
#215 = AXIS2_PLACEMENT_3D ( 'NONE', #188, #306, #273 ) ;
#216 = EDGE_CURVE ( 'NONE', #327, #327, #60, .T. ) ;
#217 = EDGE_CURVE ( 'NONE', #235, #235, #390, .T. ) ;
#218 = UNCERTAINTY_MEASURE_WITH_UNIT (LENGTH_MEASURE( 1.000000000000000082E-05 ), #57, 'distance_accuracy_value', 'NONE');
#219 = AXIS2_PLACEMENT_3D ( 'NONE', #221, #201, #346 ) ;
#220 = DIRECTION ( 'NONE',  ( 1.000000000000000000, 0.000000000000000000, -3.450126754535575604E-15 ) ) ;
#221 = CARTESIAN_POINT ( 'NONE',  ( 1.466422162314116009E-13, 0.000000000000000000, 42.00000000000000000 ) ) ;
#222 = AXIS2_PLACEMENT_3D ( 'NONE', #49, #21, #267 ) ;
#223 = TOROIDAL_SURFACE ( 'NONE', #322, 1.809999999999998943, 0.9999999999999997780 ) ;
#224 = COORDINATED_UNIVERSAL_TIME_OFFSET ( 1, 0, .AHEAD. ) ;
#225 = CARTESIAN_POINT ( 'NONE',  ( 1.200000000000000844, 0.000000000000000000, 0.2708333333333270976 ) ) ;
#226 = ORIENTED_EDGE ( 'NONE', *, *, #104, .T. ) ;
#227 = DIRECTION ( 'NONE',  ( 1.000000000000000000, 0.000000000000000000, -4.110357904567045900E-15 ) ) ;
#228 = ADVANCED_FACE ( 'NONE', ( #211, #301 ), #155, .T. ) ;
#229 = DIRECTION ( 'NONE',  ( 3.491481338843133355E-15, -0.000000000000000000, 1.000000000000000000 ) ) ;
#230 = CARTESIAN_POINT ( 'NONE',  ( -3.849594186912107475E-33, 0.000000000000000000, -1.102567596190455794E-18 ) ) ;
#231 = CARTESIAN_POINT ( 'NONE',  ( 0.9113248654051888664, 0.000000000000000000, 0.9374999999999976685 ) ) ;
#232 = EDGE_LOOP ( 'NONE', ( #141 ) ) ;
#233 = CC_DESIGN_PERSON_AND_ORGANIZATION_ASSIGNMENT ( #67, #137, ( #30 ) ) ;
#234 = DIRECTION ( 'NONE',  ( 3.491481338843133355E-15, -0.000000000000000000, 1.000000000000000000 ) ) ;
#235 = VERTEX_POINT ( 'NONE', #53 ) ;
#236 = ORIENTED_EDGE ( 'NONE', *, *, #239, .F. ) ;
#237 = FACE_OUTER_BOUND ( 'NONE', #323, .T. ) ;
#238 =( NAMED_UNIT ( * ) SI_UNIT ( $, .STERADIAN. ) SOLID_ANGLE_UNIT ( ) );
#239 = EDGE_CURVE ( 'NONE', #48, #48, #307, .T. ) ;
#240 = CARTESIAN_POINT ( 'NONE',  ( 0.000000000000000000, 0.000000000000000000, 0.000000000000000000 ) ) ;
#241 = CONICAL_SURFACE ( 'NONE', #195, 0.9113248654051855357, 1.047197551196593412 ) ;
#242 = DIRECTION ( 'NONE',  ( 3.491481338843133355E-15, -0.000000000000000000, 1.000000000000000000 ) ) ;
#243 = ADVANCED_FACE ( 'NONE', ( #393, #22 ), #361, .T. ) ;
#244 = APPLICATION_CONTEXT ( 'configuration controlled 3d designs of mechanical parts and assemblies' ) ;
#245 = LOCAL_TIME ( 10, 31, 49.00000000000000000, #193 ) ;
#246 = ADVANCED_FACE ( 'NONE', ( #270, #120 ), #37, .T. ) ;
#247 = CARTESIAN_POINT ( 'NONE',  ( 1.963958253099264484E-15, 0.000000000000000000, 0.5625000000000004441 ) ) ;
#248 = CC_DESIGN_APPROVAL ( #276, ( #72 ) ) ;
#249 = DIRECTION ( 'NONE',  ( 1.000000000000000000, 0.000000000000000000, 0.000000000000000000 ) ) ;
#250 = EDGE_LOOP ( 'NONE', ( #381 ) ) ;
#251 = DATE_TIME_ROLE ( 'creation_date' ) ;
#252 = DIRECTION ( 'NONE',  ( 1.000000000000000000, 0.000000000000000000, -3.569096642623009218E-15 ) ) ;
#253 = ADVANCED_FACE ( 'NONE', ( #52, #213 ), #331, .T. ) ;
#254 = EDGE_CURVE ( 'NONE', #321, #321, #2, .T. ) ;
#255 = CALENDAR_DATE ( 2023, 27, 9 ) ;
#256 = PLANE ( 'NONE',  #5 ) ;
#257 = FACE_OUTER_BOUND ( 'NONE', #367, .T. ) ;
#258 = DIRECTION ( 'NONE',  ( 1.000000000000000000, 0.000000000000000000, -3.469446951953614189E-15 ) ) ;
#259 = LOCAL_TIME ( 10, 31, 49.00000000000000000, #50 ) ;
#260 = ORIENTED_EDGE ( 'NONE', *, *, #332, .F. ) ;
#261 = CARTESIAN_POINT ( 'NONE',  ( 1.466422162314116009E-13, 0.000000000000000000, 42.00000000000000000 ) ) ;
#262 = VERTEX_POINT ( 'NONE', #212 ) ;
#263 = ORIENTED_EDGE ( 'NONE', *, *, #24, .F. ) ;
#264 = DIRECTION ( 'NONE',  ( 3.491481338843133355E-15, -0.000000000000000000, 1.000000000000000000 ) ) ;
#265 = APPROVAL_STATUS ( 'not_yet_approved' ) ;
#266 = DIRECTION ( 'NONE',  ( 1.000000000000000000, 0.000000000000000000, -3.523657060577889411E-15 ) ) ;
#267 = DIRECTION ( 'NONE',  ( 1.000000000000000000, 0.000000000000000000, -3.478481970057660322E-15 ) ) ;
#268 = DIRECTION ( 'NONE',  ( 1.000000000000000000, 0.000000000000000000, -3.469446951953620105E-15 ) ) ;
#269 = VERTEX_POINT ( 'NONE', #389 ) ;
#270 = FACE_OUTER_BOUND ( 'NONE', #32, .T. ) ;
#271 = DIRECTION ( 'NONE',  ( 3.491481338843133355E-15, -0.000000000000000000, 1.000000000000000000 ) ) ;
#272 = CIRCLE ( 'NONE', #215, 0.9113248654051855357 ) ;
#273 = DIRECTION ( 'NONE',  ( 1.000000000000000000, 0.000000000000000000, -3.509611698579292214E-15 ) ) ;
#274 = ADVANCED_FACE ( 'NONE', ( #302, #178 ), #88, .T. ) ;
#275 = AXIS2_PLACEMENT_3D ( 'NONE', #308, #3, #249 ) ;
#276 = APPROVAL ( #288, 'UNSPECIFIED' ) ;
#277 = CARTESIAN_POINT ( 'NONE',  ( 0.9113248654051890885, 0.000000000000000000, 0.9999999999999976685 ) ) ;
#278 = ORIENTED_EDGE ( 'NONE', *, *, #216, .F. ) ;
#279 = APPROVAL_ROLE ( '' ) ;
#280 = AXIS2_PLACEMENT_3D ( 'NONE', #286, #138, #258 ) ;
#281 = CARTESIAN_POINT ( 'NONE',  ( 3.491481338843136511E-15, 0.000000000000000000, 1.000000000000000888 ) ) ;
#282 = ADVANCED_FACE ( 'NONE', ( #333, #181 ), #223, .F. ) ;
#283 = FACE_OUTER_BOUND ( 'NONE', #147, .T. ) ;
#284 = EDGE_LOOP ( 'NONE', ( #66 ) ) ;
#285 = DATE_AND_TIME ( #93, #127 ) ;
#286 = CARTESIAN_POINT ( 'NONE',  ( 4.948404213421998040E-14, 0.000000000000000000, 14.17279295859447785 ) ) ;
#287 = ORIENTED_EDGE ( 'NONE', *, *, #95, .F. ) ;
#288 = APPROVAL_STATUS ( 'not_yet_approved' ) ;
#289 = DIRECTION ( 'NONE',  ( 3.491481338843133355E-15, -0.000000000000000000, 1.000000000000000000 ) ) ;
#290 = CARTESIAN_POINT ( 'NONE',  ( 0.000000000000000000, 0.000000000000000000, 0.000000000000000000 ) ) ;
#291 = CC_DESIGN_APPROVAL ( #26, ( #90 ) ) ;
#292 = FACE_OUTER_BOUND ( 'NONE', #384, .T. ) ;
#293 = DIRECTION ( 'NONE',  ( 3.491481338843133355E-15, -0.000000000000000000, 1.000000000000000000 ) ) ;
#294 = CYLINDRICAL_SURFACE ( 'NONE', #157, 1.199999999999999956 ) ;
#295 = ADVANCED_FACE ( 'NONE', ( #237, #142 ), #46, .T. ) ;
#296 = ORIENTED_EDGE ( 'NONE', *, *, #239, .T. ) ;
#297 = APPLICATION_PROTOCOL_DEFINITION ( 'international standard', 'config_control_design', 1994, #173 ) ;
#298 = AXIS2_PLACEMENT_3D ( 'NONE', #281, #47, #252 ) ;
#299 = AXIS2_PLACEMENT_3D ( 'NONE', #78, #11, #34 ) ;
#300 = APPROVAL_PERSON_ORGANIZATION ( #166, #276, #279 ) ;
#301 = FACE_OUTER_BOUND ( 'NONE', #42, .T. ) ;
#302 = FACE_OUTER_BOUND ( 'NONE', #77, .T. ) ;
#303 = CIRCLE ( 'NONE', #126, 1.199999999999999956 ) ;
#304 = AXIS2_PLACEMENT_3D ( 'NONE', #25, #242, #326 ) ;
#305 = ADVANCED_FACE ( 'NONE', ( #385 ), #113, .F. ) ;
#306 = DIRECTION ( 'NONE',  ( 3.491481338843133355E-15, -0.000000000000000000, 1.000000000000000000 ) ) ;
#307 = CIRCLE ( 'NONE', #304, 1.199999999999999956 ) ;
#308 = CARTESIAN_POINT ( 'NONE',  ( 1.466422162314116009E-13, 0.000000000000000000, 42.00000000000000000 ) ) ;
#309 = APPROVAL_STATUS ( 'not_yet_approved' ) ;
#310 = FACE_OUTER_BOUND ( 'NONE', #92, .T. ) ;
#311 = DATE_AND_TIME ( #132, #23 ) ;
#312 = DIRECTION ( 'NONE',  ( -3.491481338843133355E-15, 0.000000000000000000, -1.000000000000000000 ) ) ;
#313 = CIRCLE ( 'NONE', #183, 0.9113248654051855357 ) ;
#314 = ORIENTED_EDGE ( 'NONE', *, *, #104, .F. ) ;
#315 = DIRECTION ( 'NONE',  ( 1.000000000000000000, 0.000000000000000000, -3.450126754535575604E-15 ) ) ;
#316 = CYLINDRICAL_SURFACE ( 'NONE', #378, 0.9113248654051855357 ) ;
#317 = CARTESIAN_POINT ( 'NONE',  ( 1.200000000000000844, 0.000000000000000000, 0.2291666666666649921 ) ) ;
#318 = PERSON_AND_ORGANIZATION ( #334, #62 ) ;
#319 = CARTESIAN_POINT ( 'NONE',  ( 8.001311401515602357E-16, 0.000000000000000000, 0.2291666666666691832 ) ) ;
#320 = CONICAL_SURFACE ( 'NONE', #154, 1.199999999999999956, 1.047197551196593412 ) ;
#321 = VERTEX_POINT ( 'NONE', #79 ) ;
#322 = AXIS2_PLACEMENT_3D ( 'NONE', #185, #149, #18 ) ;
#323 = EDGE_LOOP ( 'NONE', ( #278 ) ) ;
#324 = DIRECTION ( 'NONE',  ( 1.000000000000000000, 0.000000000000000000, -3.491481338843133355E-15 ) ) ;
#325 = ORIENTED_EDGE ( 'NONE', *, *, #109, .F. ) ;
#326 = DIRECTION ( 'NONE',  ( 1.000000000000000000, 0.000000000000000000, -3.523657060577889411E-15 ) ) ;
#327 = VERTEX_POINT ( 'NONE', #114 ) ;
#328 = EDGE_LOOP ( 'NONE', ( #296 ) ) ;
#329 = CARTESIAN_POINT ( 'NONE',  ( 1.200000000000002398, 0.000000000000000000, 0.7708333333333274862 ) ) ;
#330 = MANIFOLD_SOLID_BREP ( 'Corps-Déplacer/Copier1', #362 ) ;
#331 = CYLINDRICAL_SURFACE ( 'NONE', #335, 0.9113248654051855357 ) ;
#332 = EDGE_CURVE ( 'NONE', #119, #119, #313, .T. ) ;
#333 = FACE_OUTER_BOUND ( 'NONE', #199, .T. ) ;
#334 = PERSON ( 'UNSPECIFIED', 'UNSPECIFIED', 'UNSPECIFIED', ('UNSPECIFIED'), ('UNSPECIFIED'), ('UNSPECIFIED') ) ;
#335 = AXIS2_PLACEMENT_3D ( 'NONE', #59, #271, #394 ) ;
#336 = COORDINATED_UNIVERSAL_TIME_OFFSET ( 1, 0, .AHEAD. ) ;
#337 = CARTESIAN_POINT ( 'NONE',  ( 3.491481338843133355E-15, 0.9113248654051855357, 1.000000000000000000 ) ) ;
#338 = ORIENTED_EDGE ( 'NONE', *, *, #109, .T. ) ;
#339 = APPROVAL_DATE_TIME ( #10, #158 ) ;
#340 = FACE_BOUND ( 'NONE', #9, .T. ) ;
#341 = ORIENTED_EDGE ( 'NONE', *, *, #123, .F. ) ;
#342 = EDGE_CURVE ( 'NONE', #116, #116, #272, .T. ) ;
#343 = DIRECTION ( 'NONE',  ( 1.000000000000000000, 0.000000000000000000, -3.501069515317774866E-15 ) ) ;
#344 = VERTEX_POINT ( 'NONE', #225 ) ;
#345 = APPROVAL_DATE_TIME ( #285, #276 ) ;
#346 = DIRECTION ( 'NONE',  ( 1.000000000000000000, 0.000000000000000000, -4.336808689942025625E-15 ) ) ;
#347 = CC_DESIGN_DATE_AND_TIME_ASSIGNMENT ( #311, #251, ( #90 ) ) ;
#348 = EDGE_LOOP ( 'NONE', ( #168 ) ) ;
#349 = CC_DESIGN_PERSON_AND_ORGANIZATION_ASSIGNMENT ( #318, #191, ( #72 ) ) ;
#350 = DATE_AND_TIME ( #197, #102 ) ;
#351 = PERSON_AND_ORGANIZATION_ROLE ( 'design_owner' ) ;
#352 = ORIENTED_EDGE ( 'NONE', *, *, #24, .T. ) ;
#353 = DIRECTION ( 'NONE',  ( 3.491481338843133355E-15, -0.000000000000000000, 1.000000000000000000 ) ) ;
#354 = CARTESIAN_POINT ( 'NONE',  ( 0.9113248654051870901, 0.000000000000000000, 0.4374999999999971689 ) ) ;
#355 = ORIENTED_EDGE ( 'NONE', *, *, #254, .F. ) ;
#356 = CARTESIAN_POINT ( 'NONE',  ( 3.442188271900671235E-14, 0.000000000000000000, 9.858819045102515943 ) ) ;
#357 = EDGE_LOOP ( 'NONE', ( #314 ) ) ;
#358 = ADVANCED_FACE ( 'NONE', ( #12, #257 ), #377, .T. ) ;
#359 = PRODUCT_DEFINITION_SHAPE ( 'NONE', 'NONE',  #90 ) ;
#360 = VERTEX_POINT ( 'NONE', #179 ) ;
#361 = CYLINDRICAL_SURFACE ( 'NONE', #186, 1.999999999999998224 ) ;
#362 = CLOSED_SHELL ( 'NONE', ( #305, #246, #56, #58, #253, #96, #274, #160, #84, #68, #358, #282, #295, #243, #228, #187 ) ) ;
#363 = AXIS2_PLACEMENT_3D ( 'NONE', #152, #207, #364 ) ;
#364 = DIRECTION ( 'NONE',  ( -1.000000000000000000, 0.000000000000000000, 3.469446951953620105E-15 ) ) ;
#365 =( GEOMETRIC_REPRESENTATION_CONTEXT ( 3 ) GLOBAL_UNCERTAINTY_ASSIGNED_CONTEXT ( ( #218 ) ) GLOBAL_UNIT_ASSIGNED_CONTEXT ( ( #57, #146, #238 ) ) REPRESENTATION_CONTEXT ( 'NONE', 'WORKASPACE' ) );
#366 = CARTESIAN_POINT ( 'NONE',  ( 3.273263755165440676E-15, 0.000000000000000000, 0.9375000000000008882 ) ) ;
#367 = EDGE_LOOP ( 'NONE', ( #209 ) ) ;
#368 = AXIS2_PLACEMENT_3D ( 'NONE', #175, #293, #129 ) ;
#369 = AXIS2_PLACEMENT_3D ( 'NONE', #290, #140, #383 ) ;
#370 = PERSON_AND_ORGANIZATION_ROLE ( 'creator' ) ;
#371 = DIRECTION ( 'NONE',  ( 3.491481338843133355E-15, -0.000000000000000000, 1.000000000000000000 ) ) ;
#372 = ORIENTED_EDGE ( 'NONE', *, *, #8, .F. ) ;
#373 = APPROVAL_DATE_TIME ( #379, #26 ) ;
#374 = CARTESIAN_POINT ( 'NONE',  ( 3.442188271900671235E-14, 0.000000000000000000, 9.858819045102515943 ) ) ;
#375 = ORIENTED_EDGE ( 'NONE', *, *, #161, .T. ) ;
#376 = CARTESIAN_POINT ( 'NONE',  ( 1.466422162314116009E-13, 1.599999999999997202, 42.00000000000000000 ) ) ;
#377 = CYLINDRICAL_SURFACE ( 'NONE', #275, 0.8099999999999994982 ) ;
#378 = AXIS2_PLACEMENT_3D ( 'NONE', #43, #15, #133 ) ;
#379 = DATE_AND_TIME ( #255, #259 ) ;
#380 = CARTESIAN_POINT ( 'NONE',  ( 2.545871809573128590E-15, 0.000000000000000000, 0.7291666666666696273 ) ) ;
#381 = ORIENTED_EDGE ( 'NONE', *, *, #95, .T. ) ;
#382 = FACE_OUTER_BOUND ( 'NONE', #348, .T. ) ;
#383 = DIRECTION ( 'NONE',  ( 1.000000000000000000, 0.000000000000000000, 0.000000000000000000 ) ) ;
#384 = EDGE_LOOP ( 'NONE', ( #64 ) ) ;
#385 = FACE_OUTER_BOUND ( 'NONE', #83, .T. ) ;
#386 = APPROVAL_ROLE ( '' ) ;
#387 = DIRECTION ( 'NONE',  ( 1.000000000000000000, 0.000000000000000000, -3.491481338843133355E-15 ) ) ;
#388 = AXIS2_PLACEMENT_3D ( 'NONE', #337, #198, #69 ) ;
#389 = CARTESIAN_POINT ( 'NONE',  ( 1.600000000000143752, 0.000000000000000000, 41.99999999999999289 ) ) ;
#390 = CIRCLE ( 'NONE', #55, 1.199999999999999956 ) ;
#391 = FACE_OUTER_BOUND ( 'NONE', #4, .T. ) ;
#392 = VERTEX_POINT ( 'NONE', #20 ) ;
#393 = FACE_OUTER_BOUND ( 'NONE', #54, .T. ) ;
#394 = DIRECTION ( 'NONE',  ( 1.000000000000000000, 0.000000000000000000, 0.000000000000000000 ) ) ;
#395 = CIRCLE ( 'NONE', #219, 1.599999999999997202 ) ;
ENDSEC;
END-ISO-10303-21;
