ISO-10303-21;
HEADER;
FILE_DESCRIPTION (( 'STEP AP203' ),
    '1' );
FILE_NAME ('961189.step',
    '2023-09-27T08:31:49',
    ( '' ),
    ( '' ),
    'SwSTEP 2.0',
    'SolidWorks 2022',
    '' );
FILE_SCHEMA (( 'CONFIG_CONTROL_DESIGN' ));
ENDSEC;

DATA;
#1 = DATE_AND_TIME ( #370, #248 ) ;
#2 = AXIS2_PLACEMENT_3D ( 'NONE', #135, #249, #61 ) ;
#3 = AXIS2_PLACEMENT_3D ( 'NONE', #327, #289, #378 ) ;
#4 = CARTESIAN_POINT ( 'NONE',  ( 0.9850000000000006528, 0.000000000000000000, 0.2062499999999946598 ) ) ;
#5 = ADVANCED_FACE ( 'NONE', ( #186, #256 ), #161, .T. ) ;
#6 = APPROVAL ( #91, 'UNSPECIFIED' ) ;
#7 = EDGE_LOOP ( 'NONE', ( #375 ) ) ;
#8 = UNCERTAINTY_MEASURE_WITH_UNIT (LENGTH_MEASURE( 1.000000000000000082E-05 ), #102, 'distance_accuracy_value', 'NONE');
#9 = VERTEX_POINT ( 'NONE', #250 ) ;
#10 = DIRECTION ( 'NONE',  ( 1.000000000000000000, 0.000000000000000000, -3.469446951953614189E-15 ) ) ;
#11 = ORIENTED_EDGE ( 'NONE', *, *, #36, .T. ) ;
#12 = CIRCLE ( 'NONE', #66, 0.9849999999999999867 ) ;
#13 = DIRECTION ( 'NONE',  ( 3.491481338843133355E-15, -0.000000000000000000, 1.000000000000000000 ) ) ;
#14 = PLANE ( 'NONE',  #342 ) ;
#15 = ORIENTED_EDGE ( 'NONE', *, *, #96, .T. ) ;
#16 = ORIENTED_EDGE ( 'NONE', *, *, #98, .T. ) ;
#17 = CARTESIAN_POINT ( 'NONE',  ( 1.500000000000127898, 0.000000000000000000, 37.69999999999998863 ) ) ;
#18 = FACE_BOUND ( 'NONE', #67, .T. ) ;
#19 = ORIENTED_EDGE ( 'NONE', *, *, #303, .T. ) ;
#20 = ADVANCED_FACE ( 'NONE', ( #369, #349 ), #321, .F. ) ;
#21 = ADVANCED_FACE ( 'NONE', ( #380, #101 ), #308, .T. ) ;
#22 = AXIS2_PLACEMENT_3D ( 'NONE', #386, #50, #374 ) ;
#23 = CALENDAR_DATE ( 2023, 27, 9 ) ;
#24 = DIRECTION ( 'NONE',  ( -1.000000000000000000, 0.000000000000000000, 3.491481338843133355E-15 ) ) ;
#25 = DIRECTION ( 'NONE',  ( -3.491481338843133355E-15, 0.000000000000000000, -1.000000000000000000 ) ) ;
#26 = SHAPE_DEFINITION_REPRESENTATION ( #265, #126 ) ;
#27 = MANIFOLD_SOLID_BREP ( 'Corps-Déplacer/Copier1', #185 ) ;
#28 = DIRECTION ( 'NONE',  ( 1.000000000000000000, 0.000000000000000000, -3.441911658684141010E-15 ) ) ;
#29 = DATE_AND_TIME ( #325, #165 ) ;
#30 = EDGE_LOOP ( 'NONE', ( #345 ) ) ;
#31 = DIRECTION ( 'NONE',  ( 3.491481338843133355E-15, -0.000000000000000000, 1.000000000000000000 ) ) ;
#32 = ADVANCED_FACE ( 'NONE', ( #229, #268 ), #109, .T. ) ;
#33 = AXIS2_PLACEMENT_3D ( 'NONE', #297, #356, #358 ) ;
#34 = LOCAL_TIME ( 10, 31, 49.00000000000000000, #49 ) ;
#35 = FACE_OUTER_BOUND ( 'NONE', #315, .T. ) ;
#36 = EDGE_CURVE ( 'NONE', #209, #209, #355, .T. ) ;
#37 = ORIENTED_EDGE ( 'NONE', *, *, #237, .T. ) ;
#38 = VERTEX_POINT ( 'NONE', #158 ) ;
#39 = CC_DESIGN_APPROVAL ( #6, ( #208 ) ) ;
#40 = APPLICATION_CONTEXT ( 'configuration controlled 3d designs of mechanical parts and assemblies' ) ;
#41 = EDGE_LOOP ( 'NONE', ( #19 ) ) ;
#42 = VERTEX_POINT ( 'NONE', #273 ) ;
#43 = DIRECTION ( 'NONE',  ( 3.491481338843133355E-15, -0.000000000000000000, 1.000000000000000000 ) ) ;
#44 = ADVANCED_FACE ( 'NONE', ( #121, #180 ), #292, .T. ) ;
#45 = ORIENTED_EDGE ( 'NONE', *, *, #96, .F. ) ;
#46 = AXIS2_PLACEMENT_3D ( 'NONE', #281, #199, #72 ) ;
#47 = DIRECTION ( 'NONE',  ( 3.491481338843133355E-15, -0.000000000000000000, 1.000000000000000000 ) ) ;
#48 = ORIENTED_EDGE ( 'NONE', *, *, #300, .F. ) ;
#49 = COORDINATED_UNIVERSAL_TIME_OFFSET ( 1, 0, .AHEAD. ) ;
#50 = DIRECTION ( 'NONE',  ( 3.491481338843133355E-15, -0.000000000000000000, 1.000000000000000000 ) ) ;
#51 = ADVANCED_FACE ( 'NONE', ( #119, #90 ), #153, .T. ) ;
#52 = APPROVAL_DATE_TIME ( #389, #301 ) ;
#53 = FACE_OUTER_BOUND ( 'NONE', #275, .T. ) ;
#54 = DIRECTION ( 'NONE',  ( -1.000000000000000000, 0.000000000000000000, 3.491481338843133355E-15 ) ) ;
#55 = ORGANIZATION ( 'UNSPECIFIED', 'UNSPECIFIED', '' ) ;
#56 = PERSON_AND_ORGANIZATION_ROLE ( 'creator' ) ;
#57 = DIRECTION ( 'NONE',  ( 3.491481338843133355E-15, -0.000000000000000000, 1.000000000000000000 ) ) ;
#58 = DIRECTION ( 'NONE',  ( 1.000000000000000000, 0.000000000000000000, -4.625929269271496366E-15 ) ) ;
#59 = EDGE_CURVE ( 'NONE', #241, #241, #65, .T. ) ;
#60 = FACE_BOUND ( 'NONE', #259, .T. ) ;
#61 = DIRECTION ( 'NONE',  ( 1.000000000000000000, 0.000000000000000000, 0.000000000000000000 ) ) ;
#62 = AXIS2_PLACEMENT_3D ( 'NONE', #148, #25, #80 ) ;
#63 = AXIS2_PLACEMENT_3D ( 'NONE', #251, #84, #339 ) ;
#64 = DIRECTION ( 'NONE',  ( -1.000000000000000000, 0.000000000000000000, 3.494763347859366968E-15 ) ) ;
#65 = CIRCLE ( 'NONE', #371, 0.6300000000000000044 ) ;
#66 = AXIS2_PLACEMENT_3D ( 'NONE', #134, #247, #103 ) ;
#67 = EDGE_LOOP ( 'NONE', ( #15 ) ) ;
#68 = EDGE_LOOP ( 'NONE', ( #11 ) ) ;
#69 = AXIS2_PLACEMENT_3D ( 'NONE', #166, #344, #170 ) ;
#70 = DIRECTION ( 'NONE',  ( 3.491481338843133355E-15, -0.000000000000000000, 1.000000000000000000 ) ) ;
#71 = ADVANCED_FACE ( 'NONE', ( #60, #35 ), #77, .T. ) ;
#72 = DIRECTION ( 'NONE',  ( 1.000000000000000000, 0.000000000000000000, -3.494763347859366968E-15 ) ) ;
#73 = VERTEX_POINT ( 'NONE', #193 ) ;
#74 = CARTESIAN_POINT ( 'NONE',  ( 2.945937379648884302E-15, 0.000000000000000000, 0.8437499999999973355 ) ) ;
#75 = EDGE_LOOP ( 'NONE', ( #310 ) ) ;
#76 = CIRCLE ( 'NONE', #264, 0.7251923788646668090 ) ;
#77 = CONICAL_SURFACE ( 'NONE', #127, 1.499999999999996447, 0.7853981633974501664 ) ;
#78 = PRODUCT_DEFINITION_FORMATION_WITH_SPECIFIED_SOURCE ( 'ANY', '', #88, .NOT_KNOWN. ) ;
#79 = MECHANICAL_CONTEXT ( 'NONE', #40, 'mechanical' ) ;
#80 = DIRECTION ( 'NONE',  ( -1.000000000000000000, 0.000000000000000000, 3.522281169496055046E-15 ) ) ;
#81 = ORIENTED_EDGE ( 'NONE', *, *, #366, .T. ) ;
#82 = ORIENTED_EDGE ( 'NONE', *, *, #363, .T. ) ;
#83 =( NAMED_UNIT ( * ) SI_UNIT ( $, .STERADIAN. ) SOLID_ANGLE_UNIT ( ) );
#84 = DIRECTION ( 'NONE',  ( 3.491481338843133355E-15, -0.000000000000000000, 1.000000000000000000 ) ) ;
#85 = APPROVAL_STATUS ( 'not_yet_approved' ) ;
#86 = DIRECTION ( 'NONE',  ( 1.000000000000000000, 0.000000000000000000, -3.491481338843133355E-15 ) ) ;
#87 = DIRECTION ( 'NONE',  ( 3.491481338843133355E-15, -0.000000000000000000, 1.000000000000000000 ) ) ;
#88 = PRODUCT ( '961189', '961189', '', ( #79 ) ) ;
#89 = AXIS2_PLACEMENT_3D ( 'NONE', #225, #188, #86 ) ;
#90 = FACE_BOUND ( 'NONE', #41, .T. ) ;
#91 = APPROVAL_STATUS ( 'not_yet_approved' ) ;
#92 = DIRECTION ( 'NONE',  ( 3.491481338843133355E-15, -0.000000000000000000, 1.000000000000000000 ) ) ;
#93 = DIRECTION ( 'NONE',  ( 1.000000000000000000, 0.000000000000000000, -3.438625486688988325E-15 ) ) ;
#94 = DIRECTION ( 'NONE',  ( 1.000000000000000000, 0.000000000000000000, 0.000000000000000000 ) ) ;
#95 = CC_DESIGN_SECURITY_CLASSIFICATION ( #208, ( #78 ) ) ;
#96 = EDGE_CURVE ( 'NONE', #73, #73, #76, .T. ) ;
#97 = ADVANCED_FACE ( 'NONE', ( #263, #390 ), #277, .T. ) ;
#98 = EDGE_CURVE ( 'NONE', #253, #253, #173, .T. ) ;
#99 = CIRCLE ( 'NONE', #192, 0.7251923788646666980 ) ;
#100 = AXIS2_PLACEMENT_3D ( 'NONE', #115, #223, #318 ) ;
#101 = FACE_OUTER_BOUND ( 'NONE', #7, .T. ) ;
#102 =( LENGTH_UNIT ( ) NAMED_UNIT ( * ) SI_UNIT ( .MILLI., .METRE. ) );
#103 = DIRECTION ( 'NONE',  ( 1.000000000000000000, 0.000000000000000000, -3.494763347859366968E-15 ) ) ;
#104 = ADVANCED_FACE ( 'NONE', ( #125, #233 ), #176, .F. ) ;
#105 = PLANE ( 'NONE',  #89 ) ;
#106 = EDGE_LOOP ( 'NONE', ( #287 ) ) ;
#107 = APPLICATION_PROTOCOL_DEFINITION ( 'international standard', 'config_control_design', 1994, #40 ) ;
#108 = DIRECTION ( 'NONE',  ( 1.000000000000000000, 0.000000000000000000, -3.491481338843133750E-15 ) ) ;
#109 = CONICAL_SURFACE ( 'NONE', #235, 0.6277645209389173253, 1.047197551196603849 ) ;
#110 = APPROVAL_PERSON_ORGANIZATION ( #296, #244, #198 ) ;
#111 = CARTESIAN_POINT ( 'NONE',  ( 0.7251923788646696956, 0.000000000000000000, 0.8437499999999947820 ) ) ;
#112 = DATE_AND_TIME ( #262, #331 ) ;
#113 = FACE_OUTER_BOUND ( 'NONE', #68, .T. ) ;
#114 = CC_DESIGN_PERSON_AND_ORGANIZATION_ASSIGNMENT ( #228, #56, ( #78 ) ) ;
#115 = CARTESIAN_POINT ( 'NONE',  ( 1.326762908760390423E-13, 0.000000000000000000, 38.00000000000000000 ) ) ;
#116 = VERTEX_POINT ( 'NONE', #111 ) ;
#117 = COORDINATED_UNIVERSAL_TIME_OFFSET ( 1, 0, .AHEAD. ) ;
#118 = CARTESIAN_POINT ( 'NONE',  ( 0.000000000000000000, 0.000000000000000000, 0.000000000000000000 ) ) ;
#119 = FACE_OUTER_BOUND ( 'NONE', #245, .T. ) ;
#120 = EDGE_CURVE ( 'NONE', #142, #142, #99, .T. ) ;
#121 = FACE_OUTER_BOUND ( 'NONE', #288, .T. ) ;
#122 = COORDINATED_UNIVERSAL_TIME_OFFSET ( 1, 0, .AHEAD. ) ;
#123 = CARTESIAN_POINT ( 'NONE',  ( 1.316288464743861212E-13, 0.000000000000000000, 37.69999999999999574 ) ) ;
#124 = DIRECTION ( 'NONE',  ( 3.491481338843133355E-15, -0.000000000000000000, 1.000000000000000000 ) ) ;
#125 = FACE_BOUND ( 'NONE', #216, .T. ) ;
#126 = ADVANCED_BREP_SHAPE_REPRESENTATION ( '961189', ( #27, #3 ), #279 ) ;
#127 = AXIS2_PLACEMENT_3D ( 'NONE', #155, #387, #392 ) ;
#128 = AXIS2_PLACEMENT_3D ( 'NONE', #320, #43, #10 ) ;
#129 = AXIS2_PLACEMENT_3D ( 'NONE', #278, #13, #255 ) ;
#130 = AXIS2_PLACEMENT_3D ( 'NONE', #317, #144, #137 ) ;
#131 = CARTESIAN_POINT ( 'NONE',  ( 0.7251923788646698066, 0.000000000000000000, 0.8999999999999955813 ) ) ;
#132 = ORIENTED_EDGE ( 'NONE', *, *, #269, .T. ) ;
#133 = CARTESIAN_POINT ( 'NONE',  ( 0.6300000000000269829, 0.000000000000000000, 7.999999999999998224 ) ) ;
#134 = CARTESIAN_POINT ( 'NONE',  ( 7.201180261363896478E-16, 0.000000000000000000, 0.2062499999999981015 ) ) ;
#135 = CARTESIAN_POINT ( 'NONE',  ( 1.326762908760390423E-13, 0.000000000000000000, 38.00000000000000000 ) ) ;
#136 = CARTESIAN_POINT ( 'NONE',  ( 1.200000000000126299, 0.000000000000000000, 37.99999999999999289 ) ) ;
#137 = DIRECTION ( 'NONE',  ( 1.000000000000000000, 0.000000000000000000, -3.438625486688988325E-15 ) ) ;
#138 = ORIENTED_EDGE ( 'NONE', *, *, #391, .F. ) ;
#139 = PERSON_AND_ORGANIZATION_ROLE ( 'design_owner' ) ;
#140 = CARTESIAN_POINT ( 'NONE',  ( 2.422215178822423765E-15, 0.000000000000000000, 0.6937499999999998668 ) ) ;
#141 = EDGE_LOOP ( 'NONE', ( #280 ) ) ;
#142 = VERTEX_POINT ( 'NONE', #276 ) ;
#143 = DATE_TIME_ROLE ( 'creation_date' ) ;
#144 = DIRECTION ( 'NONE',  ( 3.491481338843133355E-15, -0.000000000000000000, 1.000000000000000000 ) ) ;
#145 = EDGE_LOOP ( 'NONE', ( #45 ) ) ;
#146 = PERSON_AND_ORGANIZATION_ROLE ( 'creator' ) ;
#147 = DIRECTION ( 'NONE',  ( 1.000000000000000000, 0.000000000000000000, -3.438625486688988325E-15 ) ) ;
#148 = CARTESIAN_POINT ( 'NONE',  ( 2.422215178822423765E-15, 0.000000000000000000, 0.6937499999999998668 ) ) ;
#149 = APPROVAL_ROLE ( '' ) ;
#150 = CARTESIAN_POINT ( 'NONE',  ( 3.142333204958820020E-15, 0.7251923788646666980, 0.9000000000000000222 ) ) ;
#151 = DATE_TIME_ROLE ( 'classification_date' ) ;
#152 = DIRECTION ( 'NONE',  ( 3.491481338843133355E-15, -0.000000000000000000, 1.000000000000000000 ) ) ;
#153 = CONICAL_SURFACE ( 'NONE', #230, 0.6640741737109288056, 0.2617993877991428020 ) ;
#154 = AXIS2_PLACEMENT_3D ( 'NONE', #311, #47, #379 ) ;
#155 = CARTESIAN_POINT ( 'NONE',  ( 1.316288464743861212E-13, 0.000000000000000000, 37.69999999999999574 ) ) ;
#156 = ADVANCED_FACE ( 'NONE', ( #328, #360 ), #179, .T. ) ;
#157 = AXIS2_PLACEMENT_3D ( 'NONE', #351, #31, #204 ) ;
#158 = CARTESIAN_POINT ( 'NONE',  ( 1.500000000000039746, 0.000000000000000000, 11.37853670017239871 ) ) ;
#159 = AXIS2_PLACEMENT_3D ( 'NONE', #74, #57, #147 ) ;
#160 = EDGE_LOOP ( 'NONE', ( #272 ) ) ;
#161 = CYLINDRICAL_SURFACE ( 'NONE', #100, 1.499999999999998224 ) ;
#162 = FACE_OUTER_BOUND ( 'NONE', #354, .T. ) ;
#163 = ORIENTED_EDGE ( 'NONE', *, *, #120, .F. ) ;
#164 = ORIENTED_EDGE ( 'NONE', *, *, #237, .F. ) ;
#165 = LOCAL_TIME ( 10, 31, 49.00000000000000000, #203 ) ;
#166 = CARTESIAN_POINT ( 'NONE',  ( 3.142333204958813314E-15, 0.000000000000000000, 0.8999999999999980238 ) ) ;
#167 = ORIENTED_EDGE ( 'NONE', *, *, #293, .T. ) ;
#168 = EDGE_LOOP ( 'NONE', ( #182 ) ) ;
#169 = PERSON_AND_ORGANIZATION ( #335, #55 ) ;
#170 = DIRECTION ( 'NONE',  ( 1.000000000000000000, 0.000000000000000000, -3.438625486688989114E-15 ) ) ;
#171 = ORIENTED_EDGE ( 'NONE', *, *, #269, .F. ) ;
#172 = DIRECTION ( 'NONE',  ( -3.491481338843133355E-15, 0.000000000000000000, -1.000000000000000000 ) ) ;
#173 = CIRCLE ( 'NONE', #201, 1.499999999999996447 ) ;
#174 = PERSON_AND_ORGANIZATION_ROLE ( 'design_supplier' ) ;
#175 = FACE_OUTER_BOUND ( 'NONE', #141, .T. ) ;
#176 = PLANE ( 'NONE',  #302 ) ;
#177 = CARTESIAN_POINT ( 'NONE',  ( 0.000000000000000000, 0.000000000000000000, 0.000000000000000000 ) ) ;
#178 = DIRECTION ( 'NONE',  ( 1.000000000000000000, 0.000000000000000000, -3.491481338843132961E-15 ) ) ;
#179 = CONICAL_SURFACE ( 'NONE', #62, 0.9849999999999999867, 1.047197551196608067 ) ;
#180 = FACE_OUTER_BOUND ( 'NONE', #306, .T. ) ;
#181 = APPROVAL_ROLE ( '' ) ;
#182 = ORIENTED_EDGE ( 'NONE', *, *, #59, .T. ) ;
#183 = AXIS2_PLACEMENT_3D ( 'NONE', #118, #217, #221 ) ;
#184 = EDGE_LOOP ( 'NONE', ( #163 ) ) ;
#185 = CLOSED_SHELL ( 'NONE', ( #307, #32, #367, #97, #21, #352, #284, #156, #44, #104, #394, #20, #51, #5, #71, #234 ) ) ;
#186 = FACE_OUTER_BOUND ( 'NONE', #106, .T. ) ;
#187 = CC_DESIGN_PERSON_AND_ORGANIZATION_ASSIGNMENT ( #169, #146, ( #324 ) ) ;
#188 = DIRECTION ( 'NONE',  ( 3.491481338843133355E-15, -0.000000000000000000, 1.000000000000000000 ) ) ;
#189 = ORIENTED_EDGE ( 'NONE', *, *, #274, .T. ) ;
#190 = VERTEX_POINT ( 'NONE', #219 ) ;
#191 = FACE_OUTER_BOUND ( 'NONE', #282, .T. ) ;
#192 = AXIS2_PLACEMENT_3D ( 'NONE', #388, #92, #206 ) ;
#193 = CARTESIAN_POINT ( 'NONE',  ( 0.7251923788646684743, 0.000000000000000000, 0.5062499999999973133 ) ) ;
#194 = CARTESIAN_POINT ( 'NONE',  ( 1.326762908760390423E-13, 1.199999999999993516, 38.00000000000000000 ) ) ;
#195 = ORIENTED_EDGE ( 'NONE', *, *, #274, .F. ) ;
#196 = DIRECTION ( 'NONE',  ( 1.000000000000000000, 0.000000000000000000, -2.612243548462300825E-15 ) ) ;
#197 = ORIENTED_EDGE ( 'NONE', *, *, #36, .F. ) ;
#198 = APPROVAL_ROLE ( '' ) ;
#199 = DIRECTION ( 'NONE',  ( 3.491481338843133355E-15, -0.000000000000000000, 1.000000000000000000 ) ) ;
#200 = DIRECTION ( 'NONE',  ( 3.491481338843133355E-15, -0.000000000000000000, 1.000000000000000000 ) ) ;
#201 = AXIS2_PLACEMENT_3D ( 'NONE', #123, #232, #58 ) ;
#202 = CIRCLE ( 'NONE', #69, 0.7251923788646666980 ) ;
#203 = COORDINATED_UNIVERSAL_TIME_OFFSET ( 1, 0, .AHEAD. ) ;
#204 = DIRECTION ( 'NONE',  ( 1.000000000000000000, 0.000000000000000000, -3.522281169496055046E-15 ) ) ;
#205 = ORIENTED_EDGE ( 'NONE', *, *, #300, .T. ) ;
#206 = DIRECTION ( 'NONE',  ( 1.000000000000000000, 0.000000000000000000, -3.513378214660488697E-15 ) ) ;
#207 = DIRECTION ( 'NONE',  ( -3.491481338843133355E-15, 0.000000000000000000, -1.000000000000000000 ) ) ;
#208 = SECURITY_CLASSIFICATION ( '', '', #294 ) ;
#209 = VERTEX_POINT ( 'NONE', #332 ) ;
#210 = CIRCLE ( 'NONE', #159, 0.7251923788646668090 ) ;
#211 = CC_DESIGN_PERSON_AND_ORGANIZATION_ASSIGNMENT ( #347, #174, ( #78 ) ) ;
#212 = CONICAL_SURFACE ( 'NONE', #130, 0.7251923788646668090, 1.047197551196608067 ) ;
#213 = CARTESIAN_POINT ( 'NONE',  ( 2.793185071074506684E-14, 0.000000000000000000, 8.000000000000000000 ) ) ;
#214 = CYLINDRICAL_SURFACE ( 'NONE', #154, 0.9849999999999999867 ) ;
#215 = CARTESIAN_POINT ( 'NONE',  ( 2.883551257685768636E-14, 0.000000000000000000, 8.258819045102512746 ) ) ;
#216 = EDGE_LOOP ( 'NONE', ( #383 ) ) ;
#217 = DIRECTION ( 'NONE',  ( 3.491481338843133355E-15, -0.000000000000000000, 1.000000000000000000 ) ) ;
#218 = LOCAL_TIME ( 10, 31, 49.00000000000000000, #117 ) ;
#219 = CARTESIAN_POINT ( 'NONE',  ( 0.9850000000000008749, 0.000000000000000000, 0.2437499999999974687 ) ) ;
#220 =( NAMED_UNIT ( * ) PLANE_ANGLE_UNIT ( ) SI_UNIT ( $, .RADIAN. ) );
#221 = DIRECTION ( 'NONE',  ( 1.000000000000000000, 0.000000000000000000, -3.491481338843132961E-15 ) ) ;
#222 = CC_DESIGN_DATE_AND_TIME_ASSIGNMENT ( #254, #143, ( #324 ) ) ;
#223 = DIRECTION ( 'NONE',  ( 3.491481338843133355E-15, -0.000000000000000000, 1.000000000000000000 ) ) ;
#224 = VERTEX_POINT ( 'NONE', #136 ) ;
#225 = CARTESIAN_POINT ( 'NONE',  ( -5.617067577041819931E-34, 0.000000000000000000, -1.608792094791197614E-19 ) ) ;
#226 = CC_DESIGN_PERSON_AND_ORGANIZATION_ASSIGNMENT ( #353, #385, ( #208 ) ) ;
#227 = CARTESIAN_POINT ( 'NONE',  ( 8.510485763430169108E-16, 0.000000000000000000, 0.2437500000000009104 ) ) ;
#228 = PERSON_AND_ORGANIZATION ( #335, #55 ) ;
#229 = FACE_OUTER_BOUND ( 'NONE', #362, .T. ) ;
#230 = AXIS2_PLACEMENT_3D ( 'NONE', #330, #261, #326 ) ;
#231 = PERSON_AND_ORGANIZATION ( #335, #55 ) ;
#232 = DIRECTION ( 'NONE',  ( 3.491481338843133355E-15, -0.000000000000000000, 1.000000000000000000 ) ) ;
#233 = FACE_OUTER_BOUND ( 'NONE', #75, .T. ) ;
#234 = ADVANCED_FACE ( 'NONE', ( #290 ), #14, .F. ) ;
#235 = AXIS2_PLACEMENT_3D ( 'NONE', #177, #87, #178 ) ;
#236 = APPROVAL_PERSON_ORGANIZATION ( #316, #301, #149 ) ;
#237 = EDGE_CURVE ( 'NONE', #224, #224, #361, .T. ) ;
#238 = COORDINATED_UNIVERSAL_TIME_OFFSET ( 1, 0, .AHEAD. ) ;
#239 = PRODUCT_RELATED_PRODUCT_CATEGORY ( 'detail', '', ( #88 ) ) ;
#240 = AXIS2_PLACEMENT_3D ( 'NONE', #213, #70, #108 ) ;
#241 = VERTEX_POINT ( 'NONE', #365 ) ;
#242 = CC_DESIGN_APPROVAL ( #301, ( #324 ) ) ;
#243 = EDGE_LOOP ( 'NONE', ( #195 ) ) ;
#244 = APPROVAL ( #257, 'UNSPECIFIED' ) ;
#245 = EDGE_LOOP ( 'NONE', ( #384 ) ) ;
#246 = VERTEX_POINT ( 'NONE', #133 ) ;
#247 = DIRECTION ( 'NONE',  ( 3.491481338843133355E-15, -0.000000000000000000, 1.000000000000000000 ) ) ;
#248 = LOCAL_TIME ( 10, 31, 49.00000000000000000, #238 ) ;
#249 = DIRECTION ( 'NONE',  ( 3.491481338843133355E-15, -0.000000000000000000, 1.000000000000000000 ) ) ;
#250 = CARTESIAN_POINT ( 'NONE',  ( 0.9850000000000023181, 0.000000000000000000, 0.6937499999999964251 ) ) ;
#251 = CARTESIAN_POINT ( 'NONE',  ( 1.326762908760390423E-13, 0.000000000000000000, 38.00000000000000000 ) ) ;
#252 = ORIENTED_EDGE ( 'NONE', *, *, #366, .F. ) ;
#253 = VERTEX_POINT ( 'NONE', #17 ) ;
#254 = DATE_AND_TIME ( #285, #218 ) ;
#255 = DIRECTION ( 'NONE',  ( 1.000000000000000000, 0.000000000000000000, -2.753529326947317068E-15 ) ) ;
#256 = FACE_OUTER_BOUND ( 'NONE', #30, .T. ) ;
#257 = APPROVAL_STATUS ( 'not_yet_approved' ) ;
#258 = FACE_OUTER_BOUND ( 'NONE', #168, .T. ) ;
#259 = EDGE_LOOP ( 'NONE', ( #164 ) ) ;
#260 = CYLINDRICAL_SURFACE ( 'NONE', #22, 0.9849999999999999867 ) ;
#261 = DIRECTION ( 'NONE',  ( 3.491481338843133355E-15, -0.000000000000000000, 1.000000000000000000 ) ) ;
#262 = CALENDAR_DATE ( 2023, 27, 9 ) ;
#263 = FACE_BOUND ( 'NONE', #184, .T. ) ;
#264 = AXIS2_PLACEMENT_3D ( 'NONE', #323, #152, #93 ) ;
#265 = PRODUCT_DEFINITION_SHAPE ( 'NONE', 'NONE',  #324 ) ;
#266 = CC_DESIGN_DATE_AND_TIME_ASSIGNMENT ( #29, #151, ( #208 ) ) ;
#267 = CIRCLE ( 'NONE', #183, 0.6277645209389173253 ) ;
#268 = FACE_BOUND ( 'NONE', #338, .T. ) ;
#269 = EDGE_CURVE ( 'NONE', #9, #9, #298, .T. ) ;
#270 = AXIS2_PLACEMENT_3D ( 'NONE', #215, #376, #196 ) ;
#271 = VERTEX_POINT ( 'NONE', #4 ) ;
#272 = ORIENTED_EDGE ( 'NONE', *, *, #303, .F. ) ;
#273 = CARTESIAN_POINT ( 'NONE',  ( 0.6277645209389173253, 0.000000000000000000, -2.191828110046029152E-15 ) ) ;
#274 = EDGE_CURVE ( 'NONE', #116, #116, #210, .T. ) ;
#275 = EDGE_LOOP ( 'NONE', ( #81 ) ) ;
#276 = CARTESIAN_POINT ( 'NONE',  ( 0.7251923788646681412, 0.000000000000000000, 0.3937499999999957145 ) ) ;
#277 = CONICAL_SURFACE ( 'NONE', #337, 0.9849999999999999867, 1.047197551196608289 ) ;
#278 = CARTESIAN_POINT ( 'NONE',  ( 2.793185071074506684E-14, 0.000000000000000000, 8.000000000000000000 ) ) ;
#279 =( GEOMETRIC_REPRESENTATION_CONTEXT ( 3 ) GLOBAL_UNCERTAINTY_ASSIGNED_CONTEXT ( ( #8 ) ) GLOBAL_UNIT_ASSIGNED_CONTEXT ( ( #102, #220, #83 ) ) REPRESENTATION_CONTEXT ( 'NONE', 'WORKASPACE' ) );
#280 = ORIENTED_EDGE ( 'NONE', *, *, #293, .F. ) ;
#281 = CARTESIAN_POINT ( 'NONE',  ( 8.510485763430169108E-16, 0.000000000000000000, 0.2437500000000009104 ) ) ;
#282 = EDGE_LOOP ( 'NONE', ( #48 ) ) ;
#283 = EDGE_LOOP ( 'NONE', ( #171 ) ) ;
#284 = ADVANCED_FACE ( 'NONE', ( #350, #113 ), #260, .T. ) ;
#285 = CALENDAR_DATE ( 2023, 27, 9 ) ;
#286 = FACE_OUTER_BOUND ( 'NONE', #395, .T. ) ;
#287 = ORIENTED_EDGE ( 'NONE', *, *, #98, .F. ) ;
#288 = EDGE_LOOP ( 'NONE', ( #138 ) ) ;
#289 = DIRECTION ( 'NONE',  ( 0.000000000000000000, 0.000000000000000000, 1.000000000000000000 ) ) ;
#290 = FACE_OUTER_BOUND ( 'NONE', #340, .T. ) ;
#291 = APPROVAL_PERSON_ORGANIZATION ( #231, #6, #181 ) ;
#292 = CYLINDRICAL_SURFACE ( 'NONE', #33, 0.7251923788646668090 ) ;
#293 = EDGE_CURVE ( 'NONE', #42, #42, #267, .T. ) ;
#294 = SECURITY_CLASSIFICATION_LEVEL ( 'unclassified' ) ;
#295 = CARTESIAN_POINT ( 'NONE',  ( 3.142333204958813314E-15, 0.000000000000000000, 0.8999999999999980238 ) ) ;
#296 = PERSON_AND_ORGANIZATION ( #335, #55 ) ;
#297 = CARTESIAN_POINT ( 'NONE',  ( 1.326762908760390423E-13, 0.000000000000000000, 38.00000000000000000 ) ) ;
#298 = CIRCLE ( 'NONE', #381, 0.9849999999999999867 ) ;
#299 = CIRCLE ( 'NONE', #128, 1.500000000000000000 ) ;
#300 = EDGE_CURVE ( 'NONE', #190, #190, #393, .T. ) ;
#301 = APPROVAL ( #85, 'UNSPECIFIED' ) ;
#302 = AXIS2_PLACEMENT_3D ( 'NONE', #150, #207, #54 ) ;
#303 = EDGE_CURVE ( 'NONE', #372, #372, #343, .T. ) ;
#304 = EDGE_LOOP ( 'NONE', ( #132 ) ) ;
#305 = APPROVAL_DATE_TIME ( #1, #6 ) ;
#306 = EDGE_LOOP ( 'NONE', ( #189 ) ) ;
#307 = ADVANCED_FACE ( 'NONE', ( #175 ), #105, .F. ) ;
#308 = CYLINDRICAL_SURFACE ( 'NONE', #2, 0.7251923788646668090 ) ;
#309 = DIRECTION ( 'NONE',  ( -3.491481338843133355E-15, 0.000000000000000000, -1.000000000000000000 ) ) ;
#310 = ORIENTED_EDGE ( 'NONE', *, *, #391, .T. ) ;
#311 = CARTESIAN_POINT ( 'NONE',  ( 1.326762908760390423E-13, 0.000000000000000000, 38.00000000000000000 ) ) ;
#312 = APPLICATION_CONTEXT ( 'configuration controlled 3d designs of mechanical parts and assemblies' ) ;
#313 = APPLICATION_PROTOCOL_DEFINITION ( 'international standard', 'config_control_design', 1994, #312 ) ;
#314 = DIRECTION ( 'NONE',  ( 3.491481338843133355E-15, -0.000000000000000000, 1.000000000000000000 ) ) ;
#315 = EDGE_LOOP ( 'NONE', ( #16 ) ) ;
#316 = PERSON_AND_ORGANIZATION ( #335, #55 ) ;
#317 = CARTESIAN_POINT ( 'NONE',  ( 1.767562427789335472E-15, 0.000000000000000000, 0.5062499999999997558 ) ) ;
#318 = DIRECTION ( 'NONE',  ( 1.000000000000000000, 0.000000000000000000, -4.625929269271490844E-15 ) ) ;
#319 = APPROVAL_DATE_TIME ( #112, #244 ) ;
#320 = CARTESIAN_POINT ( 'NONE',  ( 3.972794855199367561E-14, 0.000000000000000000, 11.37853670017240404 ) ) ;
#321 = TOROIDAL_SURFACE ( 'NONE', #240, 1.629999999999999005, 1.000000000000000000 ) ;
#322 = CIRCLE ( 'NONE', #129, 0.6299999999999990052 ) ;
#323 = CARTESIAN_POINT ( 'NONE',  ( 1.767562427789335472E-15, 0.000000000000000000, 0.5062499999999997558 ) ) ;
#324 = PRODUCT_DEFINITION ( 'UNKNOWN', '', #78, #329 ) ;
#325 = CALENDAR_DATE ( 2023, 27, 9 ) ;
#326 = DIRECTION ( 'NONE',  ( 1.000000000000000000, 0.000000000000000000, -2.612243548462300825E-15 ) ) ;
#327 = CARTESIAN_POINT ( 'NONE',  ( 0.000000000000000000, 0.000000000000000000, 0.000000000000000000 ) ) ;
#328 = FACE_BOUND ( 'NONE', #243, .T. ) ;
#329 = DESIGN_CONTEXT ( 'detailed design', #312, 'design' ) ;
#330 = CARTESIAN_POINT ( 'NONE',  ( 2.883551257685768636E-14, 0.000000000000000000, 8.258819045102512746 ) ) ;
#331 = LOCAL_TIME ( 10, 31, 49.00000000000000000, #122 ) ;
#332 = CARTESIAN_POINT ( 'NONE',  ( 0.9850000000000023181, 0.000000000000000000, 0.6562499999999936717 ) ) ;
#333 = EDGE_CURVE ( 'NONE', #38, #38, #299, .T. ) ;
#334 = CC_DESIGN_APPROVAL ( #244, ( #78 ) ) ;
#335 = PERSON ( 'UNSPECIFIED', 'UNSPECIFIED', 'UNSPECIFIED', ('UNSPECIFIED'), ('UNSPECIFIED'), ('UNSPECIFIED') ) ;
#336 = EDGE_LOOP ( 'NONE', ( #205 ) ) ;
#337 = AXIS2_PLACEMENT_3D ( 'NONE', #227, #172, #64 ) ;
#338 = EDGE_LOOP ( 'NONE', ( #167 ) ) ;
#339 = DIRECTION ( 'NONE',  ( 1.000000000000000000, 0.000000000000000000, -5.782411586589388010E-15 ) ) ;
#340 = EDGE_LOOP ( 'NONE', ( #37 ) ) ;
#341 = DIRECTION ( 'NONE',  ( 1.000000000000000000, 0.000000000000000000, -3.522281169496055046E-15 ) ) ;
#342 = AXIS2_PLACEMENT_3D ( 'NONE', #194, #309, #24 ) ;
#343 = CIRCLE ( 'NONE', #270, 0.6640741737109288056 ) ;
#344 = DIRECTION ( 'NONE',  ( 3.491481338843133355E-15, -0.000000000000000000, 1.000000000000000000 ) ) ;
#345 = ORIENTED_EDGE ( 'NONE', *, *, #333, .T. ) ;
#346 = CARTESIAN_POINT ( 'NONE',  ( 0.6640741737109576714, 0.000000000000000000, 8.258819045102510970 ) ) ;
#347 = PERSON_AND_ORGANIZATION ( #335, #55 ) ;
#348 = CARTESIAN_POINT ( 'NONE',  ( 1.326762908760390423E-13, 0.000000000000000000, 38.00000000000000000 ) ) ;
#349 = FACE_OUTER_BOUND ( 'NONE', #377, .T. ) ;
#350 = FACE_OUTER_BOUND ( 'NONE', #283, .T. ) ;
#351 = CARTESIAN_POINT ( 'NONE',  ( 2.291284628615796404E-15, 0.000000000000000000, 0.6562499999999971134 ) ) ;
#352 = ADVANCED_FACE ( 'NONE', ( #162, #18 ), #212, .T. ) ;
#353 = PERSON_AND_ORGANIZATION ( #335, #55 ) ;
#354 = EDGE_LOOP ( 'NONE', ( #197 ) ) ;
#355 = CIRCLE ( 'NONE', #157, 0.9849999999999999867 ) ;
#356 = DIRECTION ( 'NONE',  ( 3.491481338843133355E-15, -0.000000000000000000, 1.000000000000000000 ) ) ;
#357 = PERSON_AND_ORGANIZATION ( #335, #55 ) ;
#358 = DIRECTION ( 'NONE',  ( 1.000000000000000000, 0.000000000000000000, 0.000000000000000000 ) ) ;
#359 = CC_DESIGN_PERSON_AND_ORGANIZATION_ASSIGNMENT ( #357, #139, ( #88 ) ) ;
#360 = FACE_OUTER_BOUND ( 'NONE', #304, .T. ) ;
#361 = CIRCLE ( 'NONE', #63, 1.199999999999993516 ) ;
#362 = EDGE_LOOP ( 'NONE', ( #252 ) ) ;
#363 = EDGE_CURVE ( 'NONE', #246, #246, #322, .T. ) ;
#364 = AXIS2_PLACEMENT_3D ( 'NONE', #348, #124, #94 ) ;
#365 = CARTESIAN_POINT ( 'NONE',  ( 0.6300000000000032241, 0.000000000000000000, 0.8999999999999958034 ) ) ;
#366 = EDGE_CURVE ( 'NONE', #271, #271, #12, .T. ) ;
#367 = ADVANCED_FACE ( 'NONE', ( #191, #53 ), #214, .T. ) ;
#368 = ORIENTED_EDGE ( 'NONE', *, *, #363, .F. ) ;
#369 = FACE_OUTER_BOUND ( 'NONE', #160, .T. ) ;
#370 = CALENDAR_DATE ( 2023, 27, 9 ) ;
#371 = AXIS2_PLACEMENT_3D ( 'NONE', #295, #200, #28 ) ;
#372 = VERTEX_POINT ( 'NONE', #346 ) ;
#373 = VERTEX_POINT ( 'NONE', #131 ) ;
#374 = DIRECTION ( 'NONE',  ( 1.000000000000000000, 0.000000000000000000, 0.000000000000000000 ) ) ;
#375 = ORIENTED_EDGE ( 'NONE', *, *, #120, .T. ) ;
#376 = DIRECTION ( 'NONE',  ( 3.491481338843133355E-15, -0.000000000000000000, 1.000000000000000000 ) ) ;
#377 = EDGE_LOOP ( 'NONE', ( #82 ) ) ;
#378 = DIRECTION ( 'NONE',  ( 1.000000000000000000, 0.000000000000000000, 0.000000000000000000 ) ) ;
#379 = DIRECTION ( 'NONE',  ( 1.000000000000000000, 0.000000000000000000, 0.000000000000000000 ) ) ;
#380 = FACE_OUTER_BOUND ( 'NONE', #145, .T. ) ;
#381 = AXIS2_PLACEMENT_3D ( 'NONE', #140, #314, #341 ) ;
#382 = CYLINDRICAL_SURFACE ( 'NONE', #364, 0.6299999999999994493 ) ;
#383 = ORIENTED_EDGE ( 'NONE', *, *, #59, .F. ) ;
#384 = ORIENTED_EDGE ( 'NONE', *, *, #333, .F. ) ;
#385 = PERSON_AND_ORGANIZATION_ROLE ( 'classification_officer' ) ;
#386 = CARTESIAN_POINT ( 'NONE',  ( 1.326762908760390423E-13, 0.000000000000000000, 38.00000000000000000 ) ) ;
#387 = DIRECTION ( 'NONE',  ( -3.491481338843133355E-15, 0.000000000000000000, -1.000000000000000000 ) ) ;
#388 = CARTESIAN_POINT ( 'NONE',  ( 1.374770777169477842E-15, 0.000000000000000000, 0.3937499999999982681 ) ) ;
#389 = DATE_AND_TIME ( #23, #34 ) ;
#390 = FACE_OUTER_BOUND ( 'NONE', #336, .T. ) ;
#391 = EDGE_CURVE ( 'NONE', #373, #373, #202, .T. ) ;
#392 = DIRECTION ( 'NONE',  ( -1.000000000000000000, 0.000000000000000000, 4.625929269271496366E-15 ) ) ;
#393 = CIRCLE ( 'NONE', #46, 0.9849999999999999867 ) ;
#394 = ADVANCED_FACE ( 'NONE', ( #286, #258 ), #382, .T. ) ;
#395 = EDGE_LOOP ( 'NONE', ( #368 ) ) ;
ENDSEC;
END-ISO-10303-21;
