ISO-10303-21;
HEADER;
FILE_DESCRIPTION (( 'STEP AP203' ),
    '1' );
FILE_NAME ('961188.step',
    '2023-09-27T08:31:48',
    ( '' ),
    ( '' ),
    'SwSTEP 2.0',
    'SolidWorks 2022',
    '' );
FILE_SCHEMA (( 'CONFIG_CONTROL_DESIGN' ));
ENDSEC;

DATA;
#1 = EDGE_CURVE ( 'NONE', #357, #357, #43, .T. ) ;
#2 = DIRECTION ( 'NONE',  ( -1.000000000000000000, 0.000000000000000000, 3.483064950255364665E-15 ) ) ;
#3 = DIRECTION ( 'NONE',  ( -1.000000000000000000, 0.000000000000000000, 4.625929269271496366E-15 ) ) ;
#4 = CC_DESIGN_APPROVAL ( #73, ( #191 ) ) ;
#5 = PERSON_AND_ORGANIZATION ( #74, #118 ) ;
#6 = CARTESIAN_POINT ( 'NONE',  ( 0.8329274057836306699, 0.000000000000000000, 0.3062499999999980238 ) ) ;
#7 = CALENDAR_DATE ( 2023, 27, 9 ) ;
#8 = VERTEX_POINT ( 'NONE', #139 ) ;
#9 = APPROVAL_DATE_TIME ( #322, #262 ) ;
#10 = DIRECTION ( 'NONE',  ( 1.000000000000000000, 0.000000000000000000, -4.565061778886339566E-15 ) ) ;
#11 = CONICAL_SURFACE ( 'NONE', #134, 1.499999999999996447, 0.7853981633974501664 ) ;
#12 = CIRCLE ( 'NONE', #78, 0.7599999999999991207 ) ;
#13 = CARTESIAN_POINT ( 'NONE',  ( 0.8329274057836310030, 0.000000000000000000, 0.3937499999999953260 ) ) ;
#14 = CARTESIAN_POINT ( 'NONE',  ( 1.500000000000037970, 0.000000000000000000, 10.89337009518843402 ) ) ;
#15 = ADVANCED_FACE ( 'NONE', ( #32, #90 ), #27, .T. ) ;
#16 = ORIENTED_EDGE ( 'NONE', *, *, #121, .F. ) ;
#17 = EDGE_LOOP ( 'NONE', ( #385 ) ) ;
#18 = APPLICATION_PROTOCOL_DEFINITION ( 'international standard', 'config_control_design', 1994, #86 ) ;
#19 = EDGE_LOOP ( 'NONE', ( #150 ) ) ;
#20 = CIRCLE ( 'NONE', #208, 1.034999999999999920 ) ;
#21 = EDGE_LOOP ( 'NONE', ( #182 ) ) ;
#22 = TOROIDAL_SURFACE ( 'NONE', #85, 1.759999999999999121, 1.000000000000000000 ) ;
#23 = DIRECTION ( 'NONE',  ( 3.491481338843133355E-15, -0.000000000000000000, 1.000000000000000000 ) ) ;
#24 = EDGE_CURVE ( 'NONE', #382, #382, #246, .T. ) ;
#25 = EDGE_CURVE ( 'NONE', #298, #298, #71, .T. ) ;
#26 = CC_DESIGN_PERSON_AND_ORGANIZATION_ASSIGNMENT ( #346, #35, ( #327 ) ) ;
#27 = CYLINDRICAL_SURFACE ( 'NONE', #326, 1.034999999999999920 ) ;
#28 = FACE_OUTER_BOUND ( 'NONE', #362, .T. ) ;
#29 = AXIS2_PLACEMENT_3D ( 'NONE', #258, #133, #348 ) ;
#30 = DIRECTION ( 'NONE',  ( 1.000000000000000000, 0.000000000000000000, 0.000000000000000000 ) ) ;
#31 = APPROVAL_DATE_TIME ( #284, #169 ) ;
#32 = FACE_OUTER_BOUND ( 'NONE', #356, .T. ) ;
#33 = DIRECTION ( 'NONE',  ( 1.000000000000000000, 0.000000000000000000, -3.456876491982768081E-15 ) ) ;
#34 = CYLINDRICAL_SURFACE ( 'NONE', #240, 1.034999999999999920 ) ;
#35 = PERSON_AND_ORGANIZATION_ROLE ( 'classification_officer' ) ;
#36 = FACE_OUTER_BOUND ( 'NONE', #269, .T. ) ;
#37 = DIRECTION ( 'NONE',  ( -1.000000000000000000, 0.000000000000000000, 3.491481338843133355E-15 ) ) ;
#38 = APPROVAL_ROLE ( '' ) ;
#39 = CC_DESIGN_PERSON_AND_ORGANIZATION_ASSIGNMENT ( #217, #219, ( #106 ) ) ;
#40 = CYLINDRICAL_SURFACE ( 'NONE', #77, 0.8329274057836295597 ) ;
#41 = DIRECTION ( 'NONE',  ( 3.491481338843133355E-15, -0.000000000000000000, 1.000000000000000000 ) ) ;
#42 = DATE_AND_TIME ( #228, #59 ) ;
#43 = CIRCLE ( 'NONE', #363, 1.499999999999996447 ) ;
#44 = AXIS2_PLACEMENT_3D ( 'NONE', #341, #370, #63 ) ;
#45 = EDGE_CURVE ( 'NONE', #48, #48, #232, .T. ) ;
#46 = FACE_OUTER_BOUND ( 'NONE', #87, .T. ) ;
#47 = ORIENTED_EDGE ( 'NONE', *, *, #347, .F. ) ;
#48 = VERTEX_POINT ( 'NONE', #138 ) ;
#49 = CARTESIAN_POINT ( 'NONE',  ( 0.000000000000000000, 0.000000000000000000, 0.000000000000000000 ) ) ;
#50 = EDGE_LOOP ( 'NONE', ( #366 ) ) ;
#51 = AXIS2_PLACEMENT_3D ( 'NONE', #312, #128, #226 ) ;
#52 = CC_DESIGN_PERSON_AND_ORGANIZATION_ASSIGNMENT ( #177, #104, ( #191 ) ) ;
#53 = ORIENTED_EDGE ( 'NONE', *, *, #121, .T. ) ;
#54 = CARTESIAN_POINT ( 'NONE',  ( 5.296890909742840979E-33, 0.000000000000000000, 1.517089852611932157E-18 ) ) ;
#55 = ORIENTED_EDGE ( 'NONE', *, *, #229, .T. ) ;
#56 = AXIS2_PLACEMENT_3D ( 'NONE', #272, #335, #122 ) ;
#57 = EDGE_CURVE ( 'NONE', #378, #378, #159, .T. ) ;
#58 = DIRECTION ( 'NONE',  ( 3.491481338843133355E-15, -0.000000000000000000, 1.000000000000000000 ) ) ;
#59 = LOCAL_TIME ( 10, 31, 48.00000000000000000, #97 ) ;
#60 =( NAMED_UNIT ( * ) PLANE_ANGLE_UNIT ( ) SI_UNIT ( $, .RADIAN. ) );
#61 = ADVANCED_FACE ( 'NONE', ( #175, #268 ), #72, .F. ) ;
#62 = FACE_OUTER_BOUND ( 'NONE', #190, .T. ) ;
#63 = DIRECTION ( 'NONE',  ( 1.000000000000000000, 0.000000000000000000, -3.514527010858496895E-15 ) ) ;
#64 = PERSON_AND_ORGANIZATION ( #74, #118 ) ;
#65 = DIRECTION ( 'NONE',  ( 1.000000000000000000, 0.000000000000000000, -4.625929269271496366E-15 ) ) ;
#66 = FACE_BOUND ( 'NONE', #81, .T. ) ;
#67 = AXIS2_PLACEMENT_3D ( 'NONE', #395, #253, #30 ) ;
#68 = FACE_BOUND ( 'NONE', #19, .T. ) ;
#69 = FACE_OUTER_BOUND ( 'NONE', #248, .T. ) ;
#70 = DIRECTION ( 'NONE',  ( -3.491481338843133355E-15, 0.000000000000000000, -1.000000000000000000 ) ) ;
#71 = CIRCLE ( 'NONE', #307, 1.500000000000000000 ) ;
#72 = PLANE ( 'NONE',  #165 ) ;
#73 = APPROVAL ( #379, 'UNSPECIFIED' ) ;
#74 = PERSON ( 'UNSPECIFIED', 'UNSPECIFIED', 'UNSPECIFIED', ('UNSPECIFIED'), ('UNSPECIFIED'), ('UNSPECIFIED') ) ;
#75 = FACE_OUTER_BOUND ( 'NONE', #304, .T. ) ;
#76 = CIRCLE ( 'NONE', #183, 0.7600000000000000089 ) ;
#77 = AXIS2_PLACEMENT_3D ( 'NONE', #381, #330, #207 ) ;
#78 = AXIS2_PLACEMENT_3D ( 'NONE', #267, #383, #10 ) ;
#79 = DIRECTION ( 'NONE',  ( -1.000000000000000000, 0.000000000000000000, 3.456876491982768081E-15 ) ) ;
#80 = DIRECTION ( 'NONE',  ( -3.491481338843133355E-15, 0.000000000000000000, -1.000000000000000000 ) ) ;
#81 = EDGE_LOOP ( 'NONE', ( #16 ) ) ;
#82 = DIRECTION ( 'NONE',  ( 1.000000000000000000, 0.000000000000000000, -3.456876491982768081E-15 ) ) ;
#83 = EDGE_LOOP ( 'NONE', ( #299 ) ) ;
#84 = CIRCLE ( 'NONE', #355, 1.034999999999999920 ) ;
#85 = AXIS2_PLACEMENT_3D ( 'NONE', #231, #41, #235 ) ;
#86 = APPLICATION_CONTEXT ( 'configuration controlled 3d designs of mechanical parts and assemblies' ) ;
#87 = EDGE_LOOP ( 'NONE', ( #331 ) ) ;
#88 = ORIENTED_EDGE ( 'NONE', *, *, #154, .T. ) ;
#89 = ADVANCED_FACE ( 'NONE', ( #212, #171 ), #148, .T. ) ;
#90 = FACE_OUTER_BOUND ( 'NONE', #306, .T. ) ;
#91 = PERSON_AND_ORGANIZATION ( #74, #118 ) ;
#92 = DIRECTION ( 'NONE',  ( 3.491481338843133355E-15, -0.000000000000000000, 1.000000000000000000 ) ) ;
#93 = DIRECTION ( 'NONE',  ( 3.491481338843133355E-15, -0.000000000000000000, 1.000000000000000000 ) ) ;
#94 = EDGE_CURVE ( 'NONE', #170, #170, #20, .T. ) ;
#95 = DIRECTION ( 'NONE',  ( 3.491481338843133355E-15, -0.000000000000000000, 1.000000000000000000 ) ) ;
#96 = PLANE ( 'NONE',  #291 ) ;
#97 = COORDINATED_UNIVERSAL_TIME_OFFSET ( 1, 0, .AHEAD. ) ;
#98 = DIRECTION ( 'NONE',  ( 1.000000000000000000, 0.000000000000000000, -3.483064950255364665E-15 ) ) ;
#99 = DIRECTION ( 'NONE',  ( 3.491481338843133355E-15, -0.000000000000000000, 1.000000000000000000 ) ) ;
#100 = ADVANCED_FACE ( 'NONE', ( #114 ), #310, .F. ) ;
#101 = VERTEX_POINT ( 'NONE', #109 ) ;
#102 = DATE_AND_TIME ( #7, #343 ) ;
#103 = CARTESIAN_POINT ( 'NONE',  ( 0.7600000000000270983, 0.000000000000000000, 7.999999999999996447 ) ) ;
#104 = PERSON_AND_ORGANIZATION_ROLE ( 'design_supplier' ) ;
#105 = VERTEX_POINT ( 'NONE', #260 ) ;
#106 = PRODUCT ( '961188', '961188', '', ( #117 ) ) ;
#107 = CARTESIAN_POINT ( 'NONE',  ( 1.200000000000126299, 0.000000000000000000, 37.99999999999999289 ) ) ;
#108 = ORIENTED_EDGE ( 'NONE', *, *, #367, .T. ) ;
#109 = CARTESIAN_POINT ( 'NONE',  ( 0.7600000000000025624, 0.000000000000000000, 0.6999999999999966249 ) ) ;
#110 = CIRCLE ( 'NONE', #220, 1.034999999999999920 ) ;
#111 = EDGE_LOOP ( 'NONE', ( #179 ) ) ;
#112 = EDGE_LOOP ( 'NONE', ( #216 ) ) ;
#113 = ADVANCED_FACE ( 'NONE', ( #243, #365 ), #257, .T. ) ;
#114 = FACE_OUTER_BOUND ( 'NONE', #387, .T. ) ;
#115 = EDGE_LOOP ( 'NONE', ( #119 ) ) ;
#116 = AXIS2_PLACEMENT_3D ( 'NONE', #392, #282, #187 ) ;
#117 = MECHANICAL_CONTEXT ( 'NONE', #86, 'mechanical' ) ;
#118 = ORGANIZATION ( 'UNSPECIFIED', 'UNSPECIFIED', '' ) ;
#119 = ORIENTED_EDGE ( 'NONE', *, *, #154, .F. ) ;
#120 = DIRECTION ( 'NONE',  ( 3.491481338843133355E-15, -0.000000000000000000, 1.000000000000000000 ) ) ;
#121 = EDGE_CURVE ( 'NONE', #264, #264, #380, .T. ) ;
#122 = DIRECTION ( 'NONE',  ( 1.000000000000000000, 0.000000000000000000, -4.625929269271490844E-15 ) ) ;
#123 = APPROVAL_STATUS ( 'not_yet_approved' ) ;
#124 = DIRECTION ( 'NONE',  ( 3.491481338843133355E-15, -0.000000000000000000, 1.000000000000000000 ) ) ;
#125 = DIRECTION ( 'NONE',  ( 3.491481338843133355E-15, -0.000000000000000000, 1.000000000000000000 ) ) ;
#126 = AXIS2_PLACEMENT_3D ( 'NONE', #151, #277, #285 ) ;
#127 = AXIS2_PLACEMENT_3D ( 'NONE', #174, #205, #178 ) ;
#128 = DIRECTION ( 'NONE',  ( 3.491481338843133355E-15, -0.000000000000000000, 1.000000000000000000 ) ) ;
#129 = CC_DESIGN_PERSON_AND_ORGANIZATION_ASSIGNMENT ( #318, #142, ( #191 ) ) ;
#130 = DIRECTION ( 'NONE',  ( 1.000000000000000000, 0.000000000000000000, -3.514527010858496895E-15 ) ) ;
#131 = EDGE_CURVE ( 'NONE', #101, #101, #76, .T. ) ;
#132 = APPLICATION_CONTEXT ( 'configuration controlled 3d designs of mechanical parts and assemblies' ) ;
#133 = DIRECTION ( 'NONE',  ( 3.491481338843133355E-15, -0.000000000000000000, 1.000000000000000000 ) ) ;
#134 = AXIS2_PLACEMENT_3D ( 'NONE', #158, #136, #3 ) ;
#135 =( GEOMETRIC_REPRESENTATION_CONTEXT ( 3 ) GLOBAL_UNCERTAINTY_ASSIGNED_CONTEXT ( ( #275 ) ) GLOBAL_UNIT_ASSIGNED_CONTEXT ( ( #323, #60, #302 ) ) REPRESENTATION_CONTEXT ( 'NONE', 'WORKASPACE' ) );
#136 = DIRECTION ( 'NONE',  ( -3.491481338843133355E-15, 0.000000000000000000, -1.000000000000000000 ) ) ;
#137 = DATE_TIME_ROLE ( 'classification_date' ) ;
#138 = CARTESIAN_POINT ( 'NONE',  ( 0.7571501829524913685, 0.000000000000000000, -2.643575734480287622E-15 ) ) ;
#139 = CARTESIAN_POINT ( 'NONE',  ( 1.035000000000000586, 0.000000000000000000, 0.1895833333333296622 ) ) ;
#140 = PERSON_AND_ORGANIZATION ( #74, #118 ) ;
#141 = FACE_OUTER_BOUND ( 'NONE', #147, .T. ) ;
#142 = PERSON_AND_ORGANIZATION_ROLE ( 'creator' ) ;
#143 = VERTEX_POINT ( 'NONE', #353 ) ;
#144 = SECURITY_CLASSIFICATION_LEVEL ( 'unclassified' ) ;
#145 = CARTESIAN_POINT ( 'NONE',  ( 1.035000000000001918, 0.000000000000000000, 0.5395833333333327486 ) ) ;
#146 = EDGE_LOOP ( 'NONE', ( #389 ) ) ;
#147 = EDGE_LOOP ( 'NONE', ( #53 ) ) ;
#148 = CYLINDRICAL_SURFACE ( 'NONE', #56, 1.499999999999998224 ) ;
#149 = ORIENTED_EDGE ( 'NONE', *, *, #94, .F. ) ;
#150 = ORIENTED_EDGE ( 'NONE', *, *, #57, .F. ) ;
#151 = CARTESIAN_POINT ( 'NONE',  ( 2.883551257685768636E-14, 0.000000000000000000, 8.258819045102512746 ) ) ;
#152 = APPROVAL_PERSON_ORGANIZATION ( #5, #262, #168 ) ;
#153 = ORIENTED_EDGE ( 'NONE', *, *, #25, .T. ) ;
#154 = EDGE_CURVE ( 'NONE', #239, #239, #215, .T. ) ;
#155 = ADVANCED_BREP_SHAPE_REPRESENTATION ( '961188', ( #344, #351 ), #135 ) ;
#156 = CARTESIAN_POINT ( 'NONE',  ( 3.803399840446228583E-14, 0.000000000000000000, 10.89337009518843935 ) ) ;
#157 = DIRECTION ( 'NONE',  ( 1.000000000000000000, 0.000000000000000000, -3.491481338843132961E-15 ) ) ;
#158 = CARTESIAN_POINT ( 'NONE',  ( 1.316288464743861212E-13, 0.000000000000000000, 37.69999999999999574 ) ) ;
#159 = CIRCLE ( 'NONE', #116, 1.199999999999993516 ) ;
#160 = FACE_BOUND ( 'NONE', #83, .T. ) ;
#161 = CARTESIAN_POINT ( 'NONE',  ( 1.326762908760390423E-13, 0.000000000000000000, 38.00000000000000000 ) ) ;
#162 = DIRECTION ( 'NONE',  ( -3.491481338843133355E-15, 0.000000000000000000, -1.000000000000000000 ) ) ;
#163 = DIRECTION ( 'NONE',  ( 1.000000000000000000, 0.000000000000000000, -6.704245317784761908E-15 ) ) ;
#164 = COORDINATED_UNIVERSAL_TIME_OFFSET ( 1, 0, .AHEAD. ) ;
#165 = AXIS2_PLACEMENT_3D ( 'NONE', #241, #80, #37 ) ;
#166 = CONICAL_SURFACE ( 'NONE', #127, 0.7571501829524913685, 1.047197551196591192 ) ;
#167 = CARTESIAN_POINT ( 'NONE',  ( 1.782110266701180152E-15, 0.000000000000000000, 0.5104166666666659635 ) ) ;
#168 = APPROVAL_ROLE ( '' ) ;
#169 = APPROVAL ( #123, 'UNSPECIFIED' ) ;
#170 = VERTEX_POINT ( 'NONE', #145 ) ;
#171 = FACE_OUTER_BOUND ( 'NONE', #238, .T. ) ;
#172 = COORDINATED_UNIVERSAL_TIME_OFFSET ( 1, 0, .AHEAD. ) ;
#173 = PRODUCT_DEFINITION ( 'UNKNOWN', '', #191, #376 ) ;
#174 = CARTESIAN_POINT ( 'NONE',  ( 0.000000000000000000, 0.000000000000000000, 0.000000000000000000 ) ) ;
#175 = FACE_BOUND ( 'NONE', #112, .T. ) ;
#176 = APPROVAL_PERSON_ORGANIZATION ( #64, #169, #338 ) ;
#177 = PERSON_AND_ORGANIZATION ( #74, #118 ) ;
#178 = DIRECTION ( 'NONE',  ( 1.000000000000000000, 0.000000000000000000, -3.491481338843132961E-15 ) ) ;
#179 = ORIENTED_EDGE ( 'NONE', *, *, #45, .T. ) ;
#180 = FACE_BOUND ( 'NONE', #21, .T. ) ;
#181 = ADVANCED_FACE ( 'NONE', ( #68, #36 ), #11, .T. ) ;
#182 = ORIENTED_EDGE ( 'NONE', *, *, #324, .F. ) ;
#183 = AXIS2_PLACEMENT_3D ( 'NONE', #287, #255, #198 ) ;
#184 = AXIS2_PLACEMENT_3D ( 'NONE', #369, #95, #130 ) ;
#185 = DIRECTION ( 'NONE',  ( 0.000000000000000000, 0.000000000000000000, 1.000000000000000000 ) ) ;
#186 = EDGE_LOOP ( 'NONE', ( #108 ) ) ;
#187 = DIRECTION ( 'NONE',  ( 1.000000000000000000, 0.000000000000000000, -5.782411586589388010E-15 ) ) ;
#188 = DIRECTION ( 'NONE',  ( 1.000000000000000000, 0.000000000000000000, 0.000000000000000000 ) ) ;
#189 = ORIENTED_EDGE ( 'NONE', *, *, #229, .F. ) ;
#190 = EDGE_LOOP ( 'NONE', ( #334 ) ) ;
#191 = PRODUCT_DEFINITION_FORMATION_WITH_SPECIFIED_SOURCE ( 'ANY', '', #106, .NOT_KNOWN. ) ;
#192 = APPLICATION_PROTOCOL_DEFINITION ( 'international standard', 'config_control_design', 1994, #132 ) ;
#193 = PERSON_AND_ORGANIZATION_ROLE ( 'creator' ) ;
#194 = DIRECTION ( 'NONE',  ( -1.000000000000000000, 0.000000000000000000, 3.491481338843133355E-15 ) ) ;
#195 = CARTESIAN_POINT ( 'NONE',  ( 6.619266704890104357E-16, 0.000000000000000000, 0.1895833333333332704 ) ) ;
#196 = COORDINATED_UNIVERSAL_TIME_OFFSET ( 1, 0, .AHEAD. ) ;
#197 = AXIS2_PLACEMENT_3D ( 'NONE', #234, #70, #79 ) ;
#198 = DIRECTION ( 'NONE',  ( 1.000000000000000000, 0.000000000000000000, -3.423796334164750927E-15 ) ) ;
#199 = DIRECTION ( 'NONE',  ( -3.491481338843133355E-15, 0.000000000000000000, -1.000000000000000000 ) ) ;
#200 = SHAPE_DEFINITION_REPRESENTATION ( #236, #155 ) ;
#201 = CALENDAR_DATE ( 2023, 27, 9 ) ;
#202 = LOCAL_TIME ( 10, 31, 48.00000000000000000, #164 ) ;
#203 = FACE_OUTER_BOUND ( 'NONE', #115, .T. ) ;
#204 = CALENDAR_DATE ( 2023, 27, 9 ) ;
#205 = DIRECTION ( 'NONE',  ( 3.491481338843133355E-15, -0.000000000000000000, 1.000000000000000000 ) ) ;
#206 = CLOSED_SHELL ( 'NONE', ( #100, #358, #280, #222, #391, #252, #15, #360, #289, #61, #250, #377, #113, #89, #181, #266 ) ) ;
#207 = DIRECTION ( 'NONE',  ( 1.000000000000000000, 0.000000000000000000, 0.000000000000000000 ) ) ;
#208 = AXIS2_PLACEMENT_3D ( 'NONE', #274, #120, #82 ) ;
#209 = EDGE_CURVE ( 'NONE', #105, #105, #84, .T. ) ;
#210 = EDGE_LOOP ( 'NONE', ( #88 ) ) ;
#211 = CARTESIAN_POINT ( 'NONE',  ( 0.7940741737109577869, 0.000000000000000000, 8.258819045102509193 ) ) ;
#212 = FACE_OUTER_BOUND ( 'NONE', #50, .T. ) ;
#213 = EDGE_LOOP ( 'NONE', ( #336 ) ) ;
#214 = ORIENTED_EDGE ( 'NONE', *, *, #131, .T. ) ;
#215 = CIRCLE ( 'NONE', #29, 0.7940741737109289211 ) ;
#216 = ORIENTED_EDGE ( 'NONE', *, *, #131, .F. ) ;
#217 = PERSON_AND_ORGANIZATION ( #74, #118 ) ;
#218 = ORIENTED_EDGE ( 'NONE', *, *, #316, .F. ) ;
#219 = PERSON_AND_ORGANIZATION_ROLE ( 'design_owner' ) ;
#220 = AXIS2_PLACEMENT_3D ( 'NONE', #256, #372, #98 ) ;
#221 = CC_DESIGN_APPROVAL ( #262, ( #327 ) ) ;
#222 = ADVANCED_FACE ( 'NONE', ( #66, #62 ), #337, .T. ) ;
#223 = DIRECTION ( 'NONE',  ( 1.000000000000000000, 0.000000000000000000, -3.514527010858496895E-15 ) ) ;
#224 = DIRECTION ( 'NONE',  ( 3.491481338843133355E-15, -0.000000000000000000, 1.000000000000000000 ) ) ;
#225 = CC_DESIGN_DATE_AND_TIME_ASSIGNMENT ( #352, #137, ( #327 ) ) ;
#226 = DIRECTION ( 'NONE',  ( 1.000000000000000000, 0.000000000000000000, -3.514527010858497289E-15 ) ) ;
#227 = CARTESIAN_POINT ( 'NONE',  ( 1.326762908760390423E-13, 1.199999999999993516, 38.00000000000000000 ) ) ;
#228 = CALENDAR_DATE ( 2023, 27, 9 ) ;
#229 = EDGE_CURVE ( 'NONE', #297, #297, #110, .T. ) ;
#230 = DIRECTION ( 'NONE',  ( 1.000000000000000000, 0.000000000000000000, 0.000000000000000000 ) ) ;
#231 = CARTESIAN_POINT ( 'NONE',  ( 2.793185071074506684E-14, 0.000000000000000000, 8.000000000000000000 ) ) ;
#232 = CIRCLE ( 'NONE', #301, 0.7571501829524913685 ) ;
#233 = LOCAL_TIME ( 10, 31, 48.00000000000000000, #374 ) ;
#234 = CARTESIAN_POINT ( 'NONE',  ( 1.883945139084117760E-15, 0.000000000000000000, 0.5395833333333364124 ) ) ;
#235 = DIRECTION ( 'NONE',  ( 1.000000000000000000, 0.000000000000000000, -3.491481338843133355E-15 ) ) ;
#236 = PRODUCT_DEFINITION_SHAPE ( 'NONE', 'NONE',  #173 ) ;
#237 = DIRECTION ( 'NONE',  ( 3.491481338843133355E-15, -0.000000000000000000, 1.000000000000000000 ) ) ;
#238 = EDGE_LOOP ( 'NONE', ( #153 ) ) ;
#239 = VERTEX_POINT ( 'NONE', #211 ) ;
#240 = AXIS2_PLACEMENT_3D ( 'NONE', #393, #125, #163 ) ;
#241 = CARTESIAN_POINT ( 'NONE',  ( 2.444036937190193349E-15, 0.8329274057836294487, 0.6999999999999999556 ) ) ;
#242 = ORIENTED_EDGE ( 'NONE', *, *, #25, .F. ) ;
#243 = FACE_OUTER_BOUND ( 'NONE', #271, .T. ) ;
#244 = EDGE_LOOP ( 'NONE', ( #189 ) ) ;
#245 = ORIENTED_EDGE ( 'NONE', *, *, #209, .F. ) ;
#246 = CIRCLE ( 'NONE', #278, 0.8329274057836295597 ) ;
#247 = CIRCLE ( 'NONE', #44, 0.8329274057836295597 ) ;
#248 = EDGE_LOOP ( 'NONE', ( #386 ) ) ;
#249 = CALENDAR_DATE ( 2023, 27, 9 ) ;
#250 = ADVANCED_FACE ( 'NONE', ( #313, #371 ), #292, .T. ) ;
#251 = DIRECTION ( 'NONE',  ( 1.000000000000000000, 0.000000000000000000, -3.469446951953614189E-15 ) ) ;
#252 = ADVANCED_FACE ( 'NONE', ( #28, #160 ), #320, .T. ) ;
#253 = DIRECTION ( 'NONE',  ( 3.491481338843133355E-15, -0.000000000000000000, 1.000000000000000000 ) ) ;
#254 = CC_DESIGN_PERSON_AND_ORGANIZATION_ASSIGNMENT ( #91, #193, ( #173 ) ) ;
#255 = DIRECTION ( 'NONE',  ( 3.491481338843133355E-15, -0.000000000000000000, 1.000000000000000000 ) ) ;
#256 = CARTESIAN_POINT ( 'NONE',  ( 5.600917981060968883E-16, 0.000000000000000000, 0.1604166666666698160 ) ) ;
#257 = CONICAL_SURFACE ( 'NONE', #126, 0.7940741737109289211, 0.2617993877991425244 ) ;
#258 = CARTESIAN_POINT ( 'NONE',  ( 2.883551257685768636E-14, 0.000000000000000000, 8.258819045102512746 ) ) ;
#259 = APPROVAL_STATUS ( 'not_yet_approved' ) ;
#260 = CARTESIAN_POINT ( 'NONE',  ( 1.035000000000001696, 0.000000000000000000, 0.5104166666666624108 ) ) ;
#261 = VERTEX_POINT ( 'NONE', #103 ) ;
#262 = APPROVAL ( #259, 'UNSPECIFIED' ) ;
#263 = AXIS2_PLACEMENT_3D ( 'NONE', #195, #237, #328 ) ;
#264 = VERTEX_POINT ( 'NONE', #6 ) ;
#265 = CARTESIAN_POINT ( 'NONE',  ( 0.8329274057836318912, 0.000000000000000000, 0.6562499999999942268 ) ) ;
#266 = ADVANCED_FACE ( 'NONE', ( #345 ), #96, .F. ) ;
#267 = CARTESIAN_POINT ( 'NONE',  ( 2.793185071074506684E-14, 0.000000000000000000, 8.000000000000000000 ) ) ;
#268 = FACE_OUTER_BOUND ( 'NONE', #17, .T. ) ;
#269 = EDGE_LOOP ( 'NONE', ( #300 ) ) ;
#270 = AXIS2_PLACEMENT_3D ( 'NONE', #54, #308, #388 ) ;
#271 = EDGE_LOOP ( 'NONE', ( #242 ) ) ;
#272 = CARTESIAN_POINT ( 'NONE',  ( 1.326762908760390423E-13, 0.000000000000000000, 38.00000000000000000 ) ) ;
#273 = EDGE_LOOP ( 'NONE', ( #47 ) ) ;
#274 = CARTESIAN_POINT ( 'NONE',  ( 1.883945139084117760E-15, 0.000000000000000000, 0.5395833333333364124 ) ) ;
#275 = UNCERTAINTY_MEASURE_WITH_UNIT (LENGTH_MEASURE( 1.000000000000000082E-05 ), #323, 'distance_accuracy_value', 'NONE');
#276 = ORIENTED_EDGE ( 'NONE', *, *, #45, .F. ) ;
#277 = DIRECTION ( 'NONE',  ( 3.491481338843133355E-15, -0.000000000000000000, 1.000000000000000000 ) ) ;
#278 = AXIS2_PLACEMENT_3D ( 'NONE', #309, #23, #223 ) ;
#279 = CIRCLE ( 'NONE', #263, 1.034999999999999920 ) ;
#280 = ADVANCED_FACE ( 'NONE', ( #317, #342 ), #34, .T. ) ;
#281 = DIRECTION ( 'NONE',  ( 3.491481338843133355E-15, -0.000000000000000000, 1.000000000000000000 ) ) ;
#282 = DIRECTION ( 'NONE',  ( 3.491481338843133355E-15, -0.000000000000000000, 1.000000000000000000 ) ) ;
#283 = CYLINDRICAL_SURFACE ( 'NONE', #303, 0.8329274057836295597 ) ;
#284 = DATE_AND_TIME ( #249, #394 ) ;
#285 = DIRECTION ( 'NONE',  ( 1.000000000000000000, 0.000000000000000000, -4.369172385672645445E-15 ) ) ;
#286 = CC_DESIGN_DATE_AND_TIME_ASSIGNMENT ( #42, #290, ( #173 ) ) ;
#287 = CARTESIAN_POINT ( 'NONE',  ( 2.444036937190190588E-15, 0.000000000000000000, 0.6999999999999992895 ) ) ;
#288 = FACE_OUTER_BOUND ( 'NONE', #329, .T. ) ;
#289 = ADVANCED_FACE ( 'NONE', ( #288, #69 ), #283, .T. ) ;
#290 = DATE_TIME_ROLE ( 'creation_date' ) ;
#291 = AXIS2_PLACEMENT_3D ( 'NONE', #227, #199, #194 ) ;
#292 = CYLINDRICAL_SURFACE ( 'NONE', #67, 0.7599999999999995648 ) ;
#293 = CARTESIAN_POINT ( 'NONE',  ( 1.035000000000000586, 0.000000000000000000, 0.1604166666666662078 ) ) ;
#294 = APPROVAL_DATE_TIME ( #102, #73 ) ;
#295 = FACE_BOUND ( 'NONE', #111, .T. ) ;
#296 = APPROVAL_PERSON_ORGANIZATION ( #140, #73, #38 ) ;
#297 = VERTEX_POINT ( 'NONE', #293 ) ;
#298 = VERTEX_POINT ( 'NONE', #14 ) ;
#299 = ORIENTED_EDGE ( 'NONE', *, *, #24, .T. ) ;
#300 = ORIENTED_EDGE ( 'NONE', *, *, #1, .T. ) ;
#301 = AXIS2_PLACEMENT_3D ( 'NONE', #368, #92, #157 ) ;
#302 =( NAMED_UNIT ( * ) SI_UNIT ( $, .STERADIAN. ) SOLID_ANGLE_UNIT ( ) );
#303 = AXIS2_PLACEMENT_3D ( 'NONE', #373, #99, #230 ) ;
#304 = EDGE_LOOP ( 'NONE', ( #332 ) ) ;
#305 = EDGE_LOOP ( 'NONE', ( #214 ) ) ;
#306 = EDGE_LOOP ( 'NONE', ( #359 ) ) ;
#307 = AXIS2_PLACEMENT_3D ( 'NONE', #156, #124, #251 ) ;
#308 = DIRECTION ( 'NONE',  ( 3.491481338843133355E-15, -0.000000000000000000, 1.000000000000000000 ) ) ;
#309 = CARTESIAN_POINT ( 'NONE',  ( 1.374770777169477842E-15, 0.000000000000000000, 0.3937499999999982681 ) ) ;
#310 = PLANE ( 'NONE',  #270 ) ;
#311 = CARTESIAN_POINT ( 'NONE',  ( 1.316288464743861212E-13, 0.000000000000000000, 37.69999999999999574 ) ) ;
#312 = CARTESIAN_POINT ( 'NONE',  ( 2.444036937190190588E-15, 0.000000000000000000, 0.6999999999999992895 ) ) ;
#313 = FACE_OUTER_BOUND ( 'NONE', #213, .T. ) ;
#314 = CC_DESIGN_APPROVAL ( #169, ( #173 ) ) ;
#315 = DIRECTION ( 'NONE',  ( 1.000000000000000000, 0.000000000000000000, -3.514527010858496895E-15 ) ) ;
#316 = EDGE_CURVE ( 'NONE', #143, #143, #333, .T. ) ;
#317 = FACE_OUTER_BOUND ( 'NONE', #273, .T. ) ;
#318 = PERSON_AND_ORGANIZATION ( #74, #118 ) ;
#319 = CARTESIAN_POINT ( 'NONE',  ( 1.069266160020712943E-15, 0.000000000000000000, 0.3062500000000009659 ) ) ;
#320 = CONICAL_SURFACE ( 'NONE', #184, 0.8329274057836295597, 1.047197551196596743 ) ;
#321 = CARTESIAN_POINT ( 'NONE',  ( 1.500000000000127898, 0.000000000000000000, 37.69999999999998863 ) ) ;
#322 = DATE_AND_TIME ( #204, #233 ) ;
#323 =( LENGTH_UNIT ( ) NAMED_UNIT ( * ) SI_UNIT ( .MILLI., .METRE. ) );
#324 = EDGE_CURVE ( 'NONE', #375, #375, #247, .T. ) ;
#325 = FACE_OUTER_BOUND ( 'NONE', #186, .T. ) ;
#326 = AXIS2_PLACEMENT_3D ( 'NONE', #161, #58, #339 ) ;
#327 = SECURITY_CLASSIFICATION ( '', '', #144 ) ;
#328 = DIRECTION ( 'NONE',  ( 1.000000000000000000, 0.000000000000000000, -3.483064950255364665E-15 ) ) ;
#329 = EDGE_LOOP ( 'NONE', ( #218 ) ) ;
#330 = DIRECTION ( 'NONE',  ( 3.491481338843133355E-15, -0.000000000000000000, 1.000000000000000000 ) ) ;
#331 = ORIENTED_EDGE ( 'NONE', *, *, #24, .F. ) ;
#332 = ORIENTED_EDGE ( 'NONE', *, *, #94, .T. ) ;
#333 = CIRCLE ( 'NONE', #51, 0.8329274057836294487 ) ;
#334 = ORIENTED_EDGE ( 'NONE', *, *, #347, .T. ) ;
#335 = DIRECTION ( 'NONE',  ( 3.491481338843133355E-15, -0.000000000000000000, 1.000000000000000000 ) ) ;
#336 = ORIENTED_EDGE ( 'NONE', *, *, #367, .F. ) ;
#337 = CONICAL_SURFACE ( 'NONE', #384, 1.034999999999999920, 1.047197551196596743 ) ;
#338 = APPROVAL_ROLE ( '' ) ;
#339 = DIRECTION ( 'NONE',  ( 1.000000000000000000, 0.000000000000000000, -6.704245317784761908E-15 ) ) ;
#340 = CARTESIAN_POINT ( 'NONE',  ( 6.619266704890104357E-16, 0.000000000000000000, 0.1895833333333332704 ) ) ;
#341 = CARTESIAN_POINT ( 'NONE',  ( 2.291284628615796404E-15, 0.000000000000000000, 0.6562499999999971134 ) ) ;
#342 = FACE_OUTER_BOUND ( 'NONE', #361, .T. ) ;
#343 = LOCAL_TIME ( 10, 31, 48.00000000000000000, #172 ) ;
#344 = MANIFOLD_SOLID_BREP ( 'Corps-Déplacer/Copier1', #206 ) ;
#345 = FACE_OUTER_BOUND ( 'NONE', #146, .T. ) ;
#346 = PERSON_AND_ORGANIZATION ( #74, #118 ) ;
#347 = EDGE_CURVE ( 'NONE', #8, #8, #279, .T. ) ;
#348 = DIRECTION ( 'NONE',  ( 1.000000000000000000, 0.000000000000000000, -4.369172385672645445E-15 ) ) ;
#349 = PRODUCT_RELATED_PRODUCT_CATEGORY ( 'detail', '', ( #106 ) ) ;
#350 = AXIS2_PLACEMENT_3D ( 'NONE', #319, #93, #315 ) ;
#351 = AXIS2_PLACEMENT_3D ( 'NONE', #49, #185, #188 ) ;
#352 = DATE_AND_TIME ( #201, #202 ) ;
#353 = CARTESIAN_POINT ( 'NONE',  ( 0.8329274057836320022, 0.000000000000000000, 0.6999999999999962919 ) ) ;
#354 = FACE_OUTER_BOUND ( 'NONE', #244, .T. ) ;
#355 = AXIS2_PLACEMENT_3D ( 'NONE', #167, #224, #33 ) ;
#356 = EDGE_LOOP ( 'NONE', ( #149 ) ) ;
#357 = VERTEX_POINT ( 'NONE', #321 ) ;
#358 = ADVANCED_FACE ( 'NONE', ( #354, #295 ), #166, .T. ) ;
#359 = ORIENTED_EDGE ( 'NONE', *, *, #209, .T. ) ;
#360 = ADVANCED_FACE ( 'NONE', ( #180, #75 ), #364, .T. ) ;
#361 = EDGE_LOOP ( 'NONE', ( #55 ) ) ;
#362 = EDGE_LOOP ( 'NONE', ( #245 ) ) ;
#363 = AXIS2_PLACEMENT_3D ( 'NONE', #311, #281, #65 ) ;
#364 = CONICAL_SURFACE ( 'NONE', #197, 1.034999999999999920, 1.047197551196622500 ) ;
#365 = FACE_BOUND ( 'NONE', #210, .T. ) ;
#366 = ORIENTED_EDGE ( 'NONE', *, *, #1, .F. ) ;
#367 = EDGE_CURVE ( 'NONE', #261, #261, #12, .T. ) ;
#368 = CARTESIAN_POINT ( 'NONE',  ( 0.000000000000000000, 0.000000000000000000, 0.000000000000000000 ) ) ;
#369 = CARTESIAN_POINT ( 'NONE',  ( 1.374770777169477842E-15, 0.000000000000000000, 0.3937499999999982681 ) ) ;
#370 = DIRECTION ( 'NONE',  ( 3.491481338843133355E-15, -0.000000000000000000, 1.000000000000000000 ) ) ;
#371 = FACE_OUTER_BOUND ( 'NONE', #305, .T. ) ;
#372 = DIRECTION ( 'NONE',  ( 3.491481338843133355E-15, -0.000000000000000000, 1.000000000000000000 ) ) ;
#373 = CARTESIAN_POINT ( 'NONE',  ( 1.326762908760390423E-13, 0.000000000000000000, 38.00000000000000000 ) ) ;
#374 = COORDINATED_UNIVERSAL_TIME_OFFSET ( 1, 0, .AHEAD. ) ;
#375 = VERTEX_POINT ( 'NONE', #265 ) ;
#376 = DESIGN_CONTEXT ( 'detailed design', #132, 'design' ) ;
#377 = ADVANCED_FACE ( 'NONE', ( #203, #325 ), #22, .F. ) ;
#378 = VERTEX_POINT ( 'NONE', #107 ) ;
#379 = APPROVAL_STATUS ( 'not_yet_approved' ) ;
#380 = CIRCLE ( 'NONE', #350, 0.8329274057836295597 ) ;
#381 = CARTESIAN_POINT ( 'NONE',  ( 1.326762908760390423E-13, 0.000000000000000000, 38.00000000000000000 ) ) ;
#382 = VERTEX_POINT ( 'NONE', #13 ) ;
#383 = DIRECTION ( 'NONE',  ( 3.491481338843133355E-15, -0.000000000000000000, 1.000000000000000000 ) ) ;
#384 = AXIS2_PLACEMENT_3D ( 'NONE', #340, #162, #2 ) ;
#385 = ORIENTED_EDGE ( 'NONE', *, *, #316, .T. ) ;
#386 = ORIENTED_EDGE ( 'NONE', *, *, #324, .T. ) ;
#387 = EDGE_LOOP ( 'NONE', ( #276 ) ) ;
#388 = DIRECTION ( 'NONE',  ( 1.000000000000000000, 0.000000000000000000, -3.491481338843133355E-15 ) ) ;
#389 = ORIENTED_EDGE ( 'NONE', *, *, #57, .T. ) ;
#390 = CC_DESIGN_SECURITY_CLASSIFICATION ( #327, ( #191 ) ) ;
#391 = ADVANCED_FACE ( 'NONE', ( #46, #141 ), #40, .T. ) ;
#392 = CARTESIAN_POINT ( 'NONE',  ( 1.326762908760390423E-13, 0.000000000000000000, 38.00000000000000000 ) ) ;
#393 = CARTESIAN_POINT ( 'NONE',  ( 1.326762908760390423E-13, 0.000000000000000000, 38.00000000000000000 ) ) ;
#394 = LOCAL_TIME ( 10, 31, 48.00000000000000000, #196 ) ;
#395 = CARTESIAN_POINT ( 'NONE',  ( 1.326762908760390423E-13, 0.000000000000000000, 38.00000000000000000 ) ) ;
ENDSEC;
END-ISO-10303-21;
