ISO-10303-21;
HEADER;
FILE_DESCRIPTION (( 'STEP AP203' ),
    '1' );
FILE_NAME ('961187.step',
    '2023-09-27T08:31:47',
    ( '' ),
    ( '' ),
    'SwSTEP 2.0',
    'SolidWorks 2022',
    '' );
FILE_SCHEMA (( 'CONFIG_CONTROL_DESIGN' ));
ENDSEC;

DATA;
#1 = VERTEX_POINT ( 'NONE', #96 ) ;
#2 = ORIENTED_EDGE ( 'NONE', *, *, #393, .F. ) ;
#3 = VERTEX_POINT ( 'NONE', #291 ) ;
#4 = EDGE_LOOP ( 'NONE', ( #282 ) ) ;
#5 = DATE_TIME_ROLE ( 'creation_date' ) ;
#6 = ORIENTED_EDGE ( 'NONE', *, *, #313, .T. ) ;
#7 = CIRCLE ( 'NONE', #240, 0.9456624327025928700 ) ;
#8 = EDGE_LOOP ( 'NONE', ( #250 ) ) ;
#9 = CARTESIAN_POINT ( 'NONE',  ( 9.819791265496442724E-16, 0.000000000000000000, 0.2812500000000037192 ) ) ;
#10 = PRODUCT_RELATED_PRODUCT_CATEGORY ( 'detail', '', ( #175 ) ) ;
#11 = FACE_OUTER_BOUND ( 'NONE', #369, .T. ) ;
#12 = ADVANCED_FACE ( 'NONE', ( #70, #253 ), #37, .T. ) ;
#13 = EDGE_CURVE ( 'NONE', #394, #394, #232, .T. ) ;
#14 = CARTESIAN_POINT ( 'NONE',  ( 1.326762908760390423E-13, 0.000000000000000000, 38.00000000000000000 ) ) ;
#15 = AXIS2_PLACEMENT_3D ( 'NONE', #80, #296, #17 ) ;
#16 = DIRECTION ( 'NONE',  ( 3.491481338843133355E-15, -0.000000000000000000, 1.000000000000000000 ) ) ;
#17 = DIRECTION ( 'NONE',  ( 1.000000000000000000, 0.000000000000000000, -3.491481338843133355E-15 ) ) ;
#18 = PERSON ( 'UNSPECIFIED', 'UNSPECIFIED', 'UNSPECIFIED', ('UNSPECIFIED'), ('UNSPECIFIED'), ('UNSPECIFIED') ) ;
#19 = DIRECTION ( 'NONE',  ( -1.000000000000000000, 0.000000000000000000, 3.481383122659876478E-15 ) ) ;
#20 = AXIS2_PLACEMENT_3D ( 'NONE', #384, #266, #109 ) ;
#21 = FACE_OUTER_BOUND ( 'NONE', #30, .T. ) ;
#22 = EDGE_LOOP ( 'NONE', ( #258 ) ) ;
#23 = DIRECTION ( 'NONE',  ( 3.491481338843133355E-15, -0.000000000000000000, 1.000000000000000000 ) ) ;
#24 = ADVANCED_FACE ( 'NONE', ( #312, #95 ), #339, .T. ) ;
#25 = EDGE_CURVE ( 'NONE', #243, #243, #198, .T. ) ;
#26 = CARTESIAN_POINT ( 'NONE',  ( 1.090000000000001412, 0.000000000000000000, 0.3854166666666620777 ) ) ;
#27 = EDGE_LOOP ( 'NONE', ( #72 ) ) ;
#28 = AXIS2_PLACEMENT_3D ( 'NONE', #143, #136, #323 ) ;
#29 = FACE_BOUND ( 'NONE', #192, .T. ) ;
#30 = EDGE_LOOP ( 'NONE', ( #226 ) ) ;
#31 = FACE_OUTER_BOUND ( 'NONE', #217, .T. ) ;
#32 = AXIS2_PLACEMENT_3D ( 'NONE', #325, #392, #307 ) ;
#33 = COORDINATED_UNIVERSAL_TIME_OFFSET ( 1, 0, .AHEAD. ) ;
#34 = DIRECTION ( 'NONE',  ( 3.491481338843133355E-15, -0.000000000000000000, 1.000000000000000000 ) ) ;
#35 = CIRCLE ( 'NONE', #181, 0.9456624327025928700 ) ;
#36 = PERSON_AND_ORGANIZATION ( #18, #361 ) ;
#37 = CYLINDRICAL_SURFACE ( 'NONE', #385, 0.9456624327025928700 ) ;
#38 = ORIENTED_EDGE ( 'NONE', *, *, #350, .T. ) ;
#39 = CIRCLE ( 'NONE', #32, 0.8915358449660651941 ) ;
#40 = ORIENTED_EDGE ( 'NONE', *, *, #25, .F. ) ;
#41 = PERSON_AND_ORGANIZATION ( #18, #361 ) ;
#42 = EDGE_LOOP ( 'NONE', ( #228 ) ) ;
#43 = FACE_OUTER_BOUND ( 'NONE', #388, .T. ) ;
#44 = CC_DESIGN_PERSON_AND_ORGANIZATION_ASSIGNMENT ( #347, #75, ( #196 ) ) ;
#45 = CYLINDRICAL_SURFACE ( 'NONE', #28, 1.090000000000000080 ) ;
#46 = APPROVAL_STATUS ( 'not_yet_approved' ) ;
#47 = DIRECTION ( 'NONE',  ( 1.000000000000000000, 0.000000000000000000, -3.496825623737946861E-15 ) ) ;
#48 = PERSON_AND_ORGANIZATION_ROLE ( 'creator' ) ;
#49 = DIRECTION ( 'NONE',  ( 3.491481338843133355E-15, -0.000000000000000000, 1.000000000000000000 ) ) ;
#50 = CIRCLE ( 'NONE', #303, 1.199999999999993516 ) ;
#51 = FACE_BOUND ( 'NONE', #99, .T. ) ;
#52 = DIRECTION ( 'NONE',  ( 1.000000000000000000, 0.000000000000000000, -3.469446951953614189E-15 ) ) ;
#53 = AXIS2_PLACEMENT_3D ( 'NONE', #174, #386, #380 ) ;
#54 = DIRECTION ( 'NONE',  ( -3.491481338843133355E-15, 0.000000000000000000, -1.000000000000000000 ) ) ;
#55 = ADVANCED_FACE ( 'NONE', ( #231, #238 ), #265, .F. ) ;
#56 = ADVANCED_FACE ( 'NONE', ( #51, #202 ), #173, .T. ) ;
#57 = DIRECTION ( 'NONE',  ( 1.000000000000000000, 0.000000000000000000, -3.439500613512734766E-15 ) ) ;
#58 =( GEOMETRIC_REPRESENTATION_CONTEXT ( 3 ) GLOBAL_UNCERTAINTY_ASSIGNED_CONTEXT ( ( #268 ) ) GLOBAL_UNIT_ASSIGNED_CONTEXT ( ( #101, #251, #222 ) ) REPRESENTATION_CONTEXT ( 'NONE', 'WORKASPACE' ) );
#59 = DIRECTION ( 'NONE',  ( 1.000000000000000000, 0.000000000000000000, 0.000000000000000000 ) ) ;
#60 = CARTESIAN_POINT ( 'NONE',  ( 1.745740669421568255E-15, 0.000000000000000000, 0.5000000000000004441 ) ) ;
#61 = APPLICATION_PROTOCOL_DEFINITION ( 'international standard', 'config_control_design', 1994, #283 ) ;
#62 = ORIENTED_EDGE ( 'NONE', *, *, #285, .F. ) ;
#63 = DIRECTION ( 'NONE',  ( 0.000000000000000000, 0.000000000000000000, 1.000000000000000000 ) ) ;
#64 = ORIENTED_EDGE ( 'NONE', *, *, #301, .F. ) ;
#65 = AXIS2_PLACEMENT_3D ( 'NONE', #205, #49, #47 ) ;
#66 = CARTESIAN_POINT ( 'NONE',  ( 0.9290741737109576848, 0.000000000000000000, 8.258819045102509193 ) ) ;
#67 = DIRECTION ( 'NONE',  ( 1.000000000000000000, 0.000000000000000000, 0.000000000000000000 ) ) ;
#68 = EDGE_CURVE ( 'NONE', #183, #183, #153, .T. ) ;
#69 = APPROVAL_DATE_TIME ( #341, #273 ) ;
#70 = FACE_OUTER_BOUND ( 'NONE', #8, .T. ) ;
#71 = DIRECTION ( 'NONE',  ( 1.000000000000000000, 0.000000000000000000, 0.000000000000000000 ) ) ;
#72 = ORIENTED_EDGE ( 'NONE', *, *, #301, .T. ) ;
#73 = EDGE_CURVE ( 'NONE', #211, #211, #137, .T. ) ;
#74 = PLANE ( 'NONE',  #89 ) ;
#75 = PERSON_AND_ORGANIZATION_ROLE ( 'design_supplier' ) ;
#76 = FACE_OUTER_BOUND ( 'NONE', #315, .T. ) ;
#77 = AXIS2_PLACEMENT_3D ( 'NONE', #187, #306, #304 ) ;
#78 = FACE_BOUND ( 'NONE', #197, .T. ) ;
#79 = PERSON_AND_ORGANIZATION_ROLE ( 'classification_officer' ) ;
#80 = CARTESIAN_POINT ( 'NONE',  ( 0.000000000000000000, 0.000000000000000000, 0.000000000000000000 ) ) ;
#81 = AXIS2_PLACEMENT_3D ( 'NONE', #118, #332, #90 ) ;
#82 = CIRCLE ( 'NONE', #305, 0.8950000000000000178 ) ;
#83 = DIRECTION ( 'NONE',  ( 1.000000000000000000, 0.000000000000000000, 0.000000000000000000 ) ) ;
#84 = SECURITY_CLASSIFICATION ( '', '', #141 ) ;
#85 = CARTESIAN_POINT ( 'NONE',  ( 1.090000000000000524, 0.000000000000000000, 0.1354166666666618279 ) ) ;
#86 = CYLINDRICAL_SURFACE ( 'NONE', #224, 0.8949999999999995737 ) ;
#87 = ADVANCED_FACE ( 'NONE', ( #78, #11 ), #279, .T. ) ;
#88 = ORIENTED_EDGE ( 'NONE', *, *, #68, .F. ) ;
#89 = AXIS2_PLACEMENT_3D ( 'NONE', #169, #352, #241 ) ;
#90 = DIRECTION ( 'NONE',  ( 1.000000000000000000, 0.000000000000000000, -4.625929269271490844E-15 ) ) ;
#91 = DIRECTION ( 'NONE',  ( 3.491481338843133355E-15, -0.000000000000000000, 1.000000000000000000 ) ) ;
#92 = CONICAL_SURFACE ( 'NONE', #381, 1.499999999999996447, 0.7853981633974501664 ) ;
#93 = DIRECTION ( 'NONE',  ( 3.491481338843133355E-15, -0.000000000000000000, 1.000000000000000000 ) ) ;
#94 = CARTESIAN_POINT ( 'NONE',  ( 0.8915358449660651941, 0.000000000000000000, -3.112780765608761522E-15 ) ) ;
#95 = FACE_BOUND ( 'NONE', #163, .T. ) ;
#96 = CARTESIAN_POINT ( 'NONE',  ( 1.090000000000001412, 0.000000000000000000, 0.3645833333333310389 ) ) ;
#97 = ADVANCED_FACE ( 'NONE', ( #43, #345 ), #382, .T. ) ;
#98 = ADVANCED_FACE ( 'NONE', ( #270 ), #74, .F. ) ;
#99 = EDGE_LOOP ( 'NONE', ( #367 ) ) ;
#100 = LOCAL_TIME ( 10, 31, 47.00000000000000000, #264 ) ;
#101 =( LENGTH_UNIT ( ) NAMED_UNIT ( * ) SI_UNIT ( .MILLI., .METRE. ) );
#102 = ORIENTED_EDGE ( 'NONE', *, *, #73, .F. ) ;
#103 = ORIENTED_EDGE ( 'NONE', *, *, #379, .T. ) ;
#104 = DIRECTION ( 'NONE',  ( 1.000000000000000000, 0.000000000000000000, -3.481383122659876478E-15 ) ) ;
#105 = DATE_AND_TIME ( #200, #354 ) ;
#106 = CIRCLE ( 'NONE', #290, 1.090000000000000080 ) ;
#107 = CARTESIAN_POINT ( 'NONE',  ( 4.000655700757801179E-16, 0.000000000000000000, 0.1145833333333345916 ) ) ;
#108 = DATE_AND_TIME ( #204, #100 ) ;
#109 = DIRECTION ( 'NONE',  ( -1.000000000000000000, 0.000000000000000000, 3.491481338843133355E-15 ) ) ;
#110 = AXIS2_PLACEMENT_3D ( 'NONE', #316, #63, #71 ) ;
#111 = COORDINATED_UNIVERSAL_TIME_OFFSET ( 1, 0, .AHEAD. ) ;
#112 = CARTESIAN_POINT ( 'NONE',  ( 1.326762908760390423E-13, 0.000000000000000000, 38.00000000000000000 ) ) ;
#113 = APPROVAL_DATE_TIME ( #108, #127 ) ;
#114 = DIRECTION ( 'NONE',  ( 1.000000000000000000, 0.000000000000000000, -4.625929269271496366E-15 ) ) ;
#115 = CARTESIAN_POINT ( 'NONE',  ( 1.316288464743861212E-13, 0.000000000000000000, 37.69999999999999574 ) ) ;
#116 = CC_DESIGN_PERSON_AND_ORGANIZATION_ASSIGNMENT ( #383, #48, ( #196 ) ) ;
#117 = CARTESIAN_POINT ( 'NONE',  ( 1.326762908760390423E-13, 0.000000000000000000, 38.00000000000000000 ) ) ;
#118 = CARTESIAN_POINT ( 'NONE',  ( 1.326762908760390423E-13, 0.000000000000000000, 38.00000000000000000 ) ) ;
#119 = CARTESIAN_POINT ( 'NONE',  ( 1.745740669421568255E-15, 0.000000000000000000, 0.5000000000000004441 ) ) ;
#120 = DIRECTION ( 'NONE',  ( 1.000000000000000000, 0.000000000000000000, -3.491481338843133355E-15 ) ) ;
#121 = ORIENTED_EDGE ( 'NONE', *, *, #13, .T. ) ;
#122 = VERTEX_POINT ( 'NONE', #229 ) ;
#123 = AXIS2_PLACEMENT_3D ( 'NONE', #112, #320, #140 ) ;
#124 = CARTESIAN_POINT ( 'NONE',  ( 0.8950000000000017941, 0.000000000000000000, 0.4999999999999972800 ) ) ;
#125 = EDGE_LOOP ( 'NONE', ( #38 ) ) ;
#126 = ADVANCED_FACE ( 'NONE', ( #199, #293 ), #45, .T. ) ;
#127 = APPROVAL ( #46, 'UNSPECIFIED' ) ;
#128 = COORDINATED_UNIVERSAL_TIME_OFFSET ( 1, 0, .AHEAD. ) ;
#129 = EDGE_LOOP ( 'NONE', ( #342 ) ) ;
#130 = CARTESIAN_POINT ( 'NONE',  ( 0.9456624327025944243, 0.000000000000000000, 0.4687499999999936162 ) ) ;
#131 = EDGE_LOOP ( 'NONE', ( #372 ) ) ;
#132 = CIRCLE ( 'NONE', #186, 1.500000000000000000 ) ;
#133 = VERTEX_POINT ( 'NONE', #227 ) ;
#134 = DIRECTION ( 'NONE',  ( 1.000000000000000000, 0.000000000000000000, -3.481383122659876478E-15 ) ) ;
#135 = DIRECTION ( 'NONE',  ( 3.491481338843133355E-15, -0.000000000000000000, 1.000000000000000000 ) ) ;
#136 = DIRECTION ( 'NONE',  ( 3.491481338843133355E-15, -0.000000000000000000, 1.000000000000000000 ) ) ;
#137 = CIRCLE ( 'NONE', #65, 0.9456624327025928700 ) ;
#138 = CARTESIAN_POINT ( 'NONE',  ( 2.883551257685768636E-14, 0.000000000000000000, 8.258819045102512746 ) ) ;
#139 = ADVANCED_FACE ( 'NONE', ( #76, #322 ), #377, .T. ) ;
#140 = DIRECTION ( 'NONE',  ( 1.000000000000000000, 0.000000000000000000, -6.365957710006631387E-15 ) ) ;
#141 = SECURITY_CLASSIFICATION_LEVEL ( 'unclassified' ) ;
#142 = FACE_OUTER_BOUND ( 'NONE', #309, .T. ) ;
#143 = CARTESIAN_POINT ( 'NONE',  ( 1.326762908760390423E-13, 0.000000000000000000, 38.00000000000000000 ) ) ;
#144 = CLOSED_SHELL ( 'NONE', ( #272, #244, #97, #56, #139, #24, #126, #87, #12, #55, #335, #247, #234, #284, #314, #98 ) ) ;
#145 = DIRECTION ( 'NONE',  ( 3.491481338843133355E-15, -0.000000000000000000, 1.000000000000000000 ) ) ;
#146 = ADVANCED_BREP_SHAPE_REPRESENTATION ( '961187', ( #154, #110 ), #58 ) ;
#147 = ORIENTED_EDGE ( 'NONE', *, *, #201, .T. ) ;
#148 = AXIS2_PLACEMENT_3D ( 'NONE', #277, #215, #152 ) ;
#149 = CIRCLE ( 'NONE', #148, 1.090000000000000080 ) ;
#150 = CARTESIAN_POINT ( 'NONE',  ( 0.9456624327025937582, 0.000000000000000000, 0.2812500000000003886 ) ) ;
#151 = EDGE_LOOP ( 'NONE', ( #103 ) ) ;
#152 = DIRECTION ( 'NONE',  ( 1.000000000000000000, 0.000000000000000000, -3.481383122659876478E-15 ) ) ;
#153 = CIRCLE ( 'NONE', #252, 1.499999999999996447 ) ;
#154 = MANIFOLD_SOLID_BREP ( 'Corps-Déplacer/Copier1', #144 ) ;
#155 = CARTESIAN_POINT ( 'NONE',  ( 1.326762908760390423E-13, 0.000000000000000000, 38.00000000000000000 ) ) ;
#156 = LOCAL_TIME ( 10, 31, 47.00000000000000000, #33 ) ;
#157 = EDGE_LOOP ( 'NONE', ( #300 ) ) ;
#158 = PERSON_AND_ORGANIZATION ( #18, #361 ) ;
#159 = EDGE_LOOP ( 'NONE', ( #62 ) ) ;
#160 = CC_DESIGN_DATE_AND_TIME_ASSIGNMENT ( #105, #376, ( #84 ) ) ;
#161 = APPROVAL_STATUS ( 'not_yet_approved' ) ;
#162 = EDGE_LOOP ( 'NONE', ( #317 ) ) ;
#163 = EDGE_LOOP ( 'NONE', ( #292 ) ) ;
#164 = LOCAL_TIME ( 10, 31, 47.00000000000000000, #167 ) ;
#165 = CARTESIAN_POINT ( 'NONE',  ( 0.9456624327025945353, 0.000000000000000000, 0.4999999999999971689 ) ) ;
#166 = ORIENTED_EDGE ( 'NONE', *, *, #379, .F. ) ;
#167 = COORDINATED_UNIVERSAL_TIME_OFFSET ( 1, 0, .AHEAD. ) ;
#168 = EDGE_LOOP ( 'NONE', ( #6 ) ) ;
#169 = CARTESIAN_POINT ( 'NONE',  ( 1.326762908760390423E-13, 1.199999999999993516, 38.00000000000000000 ) ) ;
#170 = DIRECTION ( 'NONE',  ( 1.000000000000000000, 0.000000000000000000, -3.876477041288958460E-15 ) ) ;
#171 = CC_DESIGN_PERSON_AND_ORGANIZATION_ASSIGNMENT ( #158, #191, ( #326 ) ) ;
#172 = APPROVAL_ROLE ( '' ) ;
#173 = CONICAL_SURFACE ( 'NONE', #53, 1.090000000000000080, 1.047197551196611620 ) ;
#174 = CARTESIAN_POINT ( 'NONE',  ( 4.728047646350040591E-16, 0.000000000000000000, 0.1354166666666656305 ) ) ;
#175 = PRODUCT ( '961187', '961187', '', ( #370 ) ) ;
#176 = PERSON_AND_ORGANIZATION ( #18, #361 ) ;
#177 = DIRECTION ( 'NONE',  ( 1.000000000000000000, 0.000000000000000000, -3.493816633812232898E-15 ) ) ;
#178 = DIRECTION ( 'NONE',  ( 1.000000000000000000, 0.000000000000000000, -3.734305667001668009E-15 ) ) ;
#179 = APPROVAL_PERSON_ORGANIZATION ( #176, #127, #172 ) ;
#180 = FACE_OUTER_BOUND ( 'NONE', #4, .T. ) ;
#181 = AXIS2_PLACEMENT_3D ( 'NONE', #235, #16, #348 ) ;
#182 = ORIENTED_EDGE ( 'NONE', *, *, #68, .T. ) ;
#183 = VERTEX_POINT ( 'NONE', #302 ) ;
#184 = CARTESIAN_POINT ( 'NONE',  ( 1.636631877582708111E-15, 0.000000000000000000, 0.4687499999999969469 ) ) ;
#185 = DIRECTION ( 'NONE',  ( 1.000000000000000000, 0.000000000000000000, -3.513057318668114882E-15 ) ) ;
#186 = AXIS2_PLACEMENT_3D ( 'NONE', #353, #91, #52 ) ;
#187 = CARTESIAN_POINT ( 'NONE',  ( 2.883551257685768636E-14, 0.000000000000000000, 8.258819045102512746 ) ) ;
#188 = APPROVAL_ROLE ( '' ) ;
#189 = APPROVAL ( #161, 'UNSPECIFIED' ) ;
#190 = EDGE_LOOP ( 'NONE', ( #182 ) ) ;
#191 = PERSON_AND_ORGANIZATION_ROLE ( 'creator' ) ;
#192 = EDGE_LOOP ( 'NONE', ( #256 ) ) ;
#193 = AXIS2_PLACEMENT_3D ( 'NONE', #365, #289, #134 ) ;
#194 = DATE_AND_TIME ( #254, #210 ) ;
#195 = CARTESIAN_POINT ( 'NONE',  ( 1.326762908760390423E-13, 0.000000000000000000, 38.00000000000000000 ) ) ;
#196 = PRODUCT_DEFINITION_FORMATION_WITH_SPECIFIED_SOURCE ( 'ANY', '', #175, .NOT_KNOWN. ) ;
#197 = EDGE_LOOP ( 'NONE', ( #287 ) ) ;
#198 = CIRCLE ( 'NONE', #391, 1.090000000000000080 ) ;
#199 = FACE_OUTER_BOUND ( 'NONE', #230, .T. ) ;
#200 = CALENDAR_DATE ( 2023, 27, 9 ) ;
#201 = EDGE_CURVE ( 'NONE', #248, #248, #106, .T. ) ;
#202 = FACE_OUTER_BOUND ( 'NONE', #162, .T. ) ;
#203 = CC_DESIGN_PERSON_AND_ORGANIZATION_ASSIGNMENT ( #208, #79, ( #84 ) ) ;
#204 = CALENDAR_DATE ( 2023, 27, 9 ) ;
#205 = CARTESIAN_POINT ( 'NONE',  ( 9.819791265496442724E-16, 0.000000000000000000, 0.2812500000000037192 ) ) ;
#206 = CONICAL_SURFACE ( 'NONE', #378, 0.9290741737109289300, 0.2617993877991424134 ) ;
#207 = CARTESIAN_POINT ( 'NONE',  ( 1.345675099345788088E-15, 0.000000000000000000, 0.3854166666666658525 ) ) ;
#208 = PERSON_AND_ORGANIZATION ( #18, #361 ) ;
#209 = DIRECTION ( 'NONE',  ( 3.491481338843133355E-15, -0.000000000000000000, 1.000000000000000000 ) ) ;
#210 = LOCAL_TIME ( 10, 31, 47.00000000000000000, #128 ) ;
#211 = VERTEX_POINT ( 'NONE', #150 ) ;
#212 = DIRECTION ( 'NONE',  ( 1.000000000000000000, 0.000000000000000000, -3.491481338843133355E-15 ) ) ;
#213 = TOROIDAL_SURFACE ( 'NONE', #246, 1.894999999999999130, 1.000000000000000000 ) ;
#214 = EDGE_LOOP ( 'NONE', ( #64 ) ) ;
#215 = DIRECTION ( 'NONE',  ( 3.491481338843133355E-15, -0.000000000000000000, 1.000000000000000000 ) ) ;
#216 = EDGE_CURVE ( 'NONE', #274, #274, #35, .T. ) ;
#217 = EDGE_LOOP ( 'NONE', ( #88 ) ) ;
#218 = EDGE_CURVE ( 'NONE', #3, #3, #327, .T. ) ;
#219 = APPROVAL_PERSON_ORGANIZATION ( #36, #189, #281 ) ;
#220 = DIRECTION ( 'NONE',  ( 3.491481338843133355E-15, -0.000000000000000000, 1.000000000000000000 ) ) ;
#221 = DIRECTION ( 'NONE',  ( 1.000000000000000000, 0.000000000000000000, -5.782411586589388010E-15 ) ) ;
#222 =( NAMED_UNIT ( * ) SI_UNIT ( $, .STERADIAN. ) SOLID_ANGLE_UNIT ( ) );
#223 = CALENDAR_DATE ( 2023, 27, 9 ) ;
#224 = AXIS2_PLACEMENT_3D ( 'NONE', #155, #145, #59 ) ;
#225 = EDGE_LOOP ( 'NONE', ( #359 ) ) ;
#226 = ORIENTED_EDGE ( 'NONE', *, *, #218, .F. ) ;
#227 = CARTESIAN_POINT ( 'NONE',  ( 1.500000000000036193, 0.000000000000000000, 10.38954323616662379 ) ) ;
#228 = ORIENTED_EDGE ( 'NONE', *, *, #201, .F. ) ;
#229 = CARTESIAN_POINT ( 'NONE',  ( 1.200000000000126299, 0.000000000000000000, 37.99999999999999289 ) ) ;
#230 = EDGE_LOOP ( 'NONE', ( #260 ) ) ;
#231 = FACE_BOUND ( 'NONE', #159, .T. ) ;
#232 = CIRCLE ( 'NONE', #193, 1.090000000000000080 ) ;
#233 = APPROVAL_DATE_TIME ( #194, #189 ) ;
#234 = ADVANCED_FACE ( 'NONE', ( #267, #294 ), #206, .T. ) ;
#235 = CARTESIAN_POINT ( 'NONE',  ( 7.637615428719239830E-16, 0.000000000000000000, 0.2187499999999967248 ) ) ;
#236 = SHAPE_DEFINITION_REPRESENTATION ( #239, #146 ) ;
#237 = DIRECTION ( 'NONE',  ( 3.491481338843133355E-15, -0.000000000000000000, 1.000000000000000000 ) ) ;
#238 = FACE_OUTER_BOUND ( 'NONE', #131, .T. ) ;
#239 = PRODUCT_DEFINITION_SHAPE ( 'NONE', 'NONE',  #326 ) ;
#240 = AXIS2_PLACEMENT_3D ( 'NONE', #184, #220, #362 ) ;
#241 = DIRECTION ( 'NONE',  ( -1.000000000000000000, 0.000000000000000000, 3.491481338843133355E-15 ) ) ;
#242 = CARTESIAN_POINT ( 'NONE',  ( 2.793185071074506684E-14, 0.000000000000000000, 8.000000000000000000 ) ) ;
#243 = VERTEX_POINT ( 'NONE', #85 ) ;
#244 = ADVANCED_FACE ( 'NONE', ( #297, #349 ), #311, .T. ) ;
#245 = CARTESIAN_POINT ( 'NONE',  ( 0.9456624327025935361, 0.000000000000000000, 0.2187499999999934219 ) ) ;
#246 = AXIS2_PLACEMENT_3D ( 'NONE', #242, #387, #120 ) ;
#247 = ADVANCED_FACE ( 'NONE', ( #142, #276 ), #213, .F. ) ;
#248 = VERTEX_POINT ( 'NONE', #360 ) ;
#249 = CYLINDRICAL_SURFACE ( 'NONE', #81, 1.499999999999998224 ) ;
#250 = ORIENTED_EDGE ( 'NONE', *, *, #336, .F. ) ;
#251 =( NAMED_UNIT ( * ) PLANE_ANGLE_UNIT ( ) SI_UNIT ( $, .RADIAN. ) );
#252 = AXIS2_PLACEMENT_3D ( 'NONE', #115, #319, #114 ) ;
#253 = FACE_OUTER_BOUND ( 'NONE', #168, .T. ) ;
#254 = CALENDAR_DATE ( 2023, 27, 9 ) ;
#255 = CIRCLE ( 'NONE', #77, 0.9290741737109289300 ) ;
#256 = ORIENTED_EDGE ( 'NONE', *, *, #350, .F. ) ;
#257 = APPLICATION_PROTOCOL_DEFINITION ( 'international standard', 'config_control_design', 1994, #333 ) ;
#258 = ORIENTED_EDGE ( 'NONE', *, *, #218, .T. ) ;
#259 = AXIS2_PLACEMENT_3D ( 'NONE', #331, #23, #212 ) ;
#260 = ORIENTED_EDGE ( 'NONE', *, *, #13, .F. ) ;
#261 = CARTESIAN_POINT ( 'NONE',  ( 4.728047646350040591E-16, 0.000000000000000000, 0.1354166666666656305 ) ) ;
#262 = CC_DESIGN_APPROVAL ( #189, ( #196 ) ) ;
#263 = CC_DESIGN_DATE_AND_TIME_ASSIGNMENT ( #310, #5, ( #326 ) ) ;
#264 = COORDINATED_UNIVERSAL_TIME_OFFSET ( 1, 0, .AHEAD. ) ;
#265 = PLANE ( 'NONE',  #20 ) ;
#266 = DIRECTION ( 'NONE',  ( -3.491481338843133355E-15, 0.000000000000000000, -1.000000000000000000 ) ) ;
#267 = FACE_OUTER_BOUND ( 'NONE', #214, .T. ) ;
#268 = UNCERTAINTY_MEASURE_WITH_UNIT (LENGTH_MEASURE( 1.000000000000000082E-05 ), #101, 'distance_accuracy_value', 'NONE');
#269 = DIRECTION ( 'NONE',  ( -3.491481338843133355E-15, 0.000000000000000000, -1.000000000000000000 ) ) ;
#270 = FACE_OUTER_BOUND ( 'NONE', #125, .T. ) ;
#271 = DIRECTION ( 'NONE',  ( 3.491481338843133355E-15, -0.000000000000000000, 1.000000000000000000 ) ) ;
#272 = ADVANCED_FACE ( 'NONE', ( #358 ), #355, .F. ) ;
#273 = APPROVAL ( #286, 'UNSPECIFIED' ) ;
#274 = VERTEX_POINT ( 'NONE', #245 ) ;
#275 = DIRECTION ( 'NONE',  ( 3.491481338843133355E-15, -0.000000000000000000, 1.000000000000000000 ) ) ;
#276 = FACE_OUTER_BOUND ( 'NONE', #22, .T. ) ;
#277 = CARTESIAN_POINT ( 'NONE',  ( 1.272935904786564295E-15, 0.000000000000000000, 0.3645833333333348136 ) ) ;
#278 = VERTEX_POINT ( 'NONE', #165 ) ;
#279 = CONICAL_SURFACE ( 'NONE', #298, 1.090000000000000080, 1.047197551196611620 ) ;
#280 = DIRECTION ( 'NONE',  ( 1.000000000000000000, 0.000000000000000000, -3.496825623737946861E-15 ) ) ;
#281 = APPROVAL_ROLE ( '' ) ;
#282 = ORIENTED_EDGE ( 'NONE', *, *, #285, .T. ) ;
#283 = APPLICATION_CONTEXT ( 'configuration controlled 3d designs of mechanical parts and assemblies' ) ;
#284 = ADVANCED_FACE ( 'NONE', ( #31, #329 ), #249, .T. ) ;
#285 = EDGE_CURVE ( 'NONE', #288, #288, #82, .T. ) ;
#286 = APPROVAL_STATUS ( 'not_yet_approved' ) ;
#287 = ORIENTED_EDGE ( 'NONE', *, *, #313, .F. ) ;
#288 = VERTEX_POINT ( 'NONE', #124 ) ;
#289 = DIRECTION ( 'NONE',  ( 3.491481338843133355E-15, -0.000000000000000000, 1.000000000000000000 ) ) ;
#290 = AXIS2_PLACEMENT_3D ( 'NONE', #107, #209, #177 ) ;
#291 = CARTESIAN_POINT ( 'NONE',  ( 0.8950000000000271072, 0.000000000000000000, 7.999999999999996447 ) ) ;
#292 = ORIENTED_EDGE ( 'NONE', *, *, #73, .T. ) ;
#293 = FACE_OUTER_BOUND ( 'NONE', #157, .T. ) ;
#294 = FACE_BOUND ( 'NONE', #151, .T. ) ;
#295 = DIRECTION ( 'NONE',  ( 3.491481338843133355E-15, -0.000000000000000000, 1.000000000000000000 ) ) ;
#296 = DIRECTION ( 'NONE',  ( 3.491481338843133355E-15, -0.000000000000000000, 1.000000000000000000 ) ) ;
#297 = FACE_OUTER_BOUND ( 'NONE', #42, .T. ) ;
#298 = AXIS2_PLACEMENT_3D ( 'NONE', #207, #269, #19 ) ;
#299 = FACE_OUTER_BOUND ( 'NONE', #190, .T. ) ;
#300 = ORIENTED_EDGE ( 'NONE', *, *, #364, .T. ) ;
#301 = EDGE_CURVE ( 'NONE', #133, #133, #132, .T. ) ;
#302 = CARTESIAN_POINT ( 'NONE',  ( 1.500000000000127898, 0.000000000000000000, 37.69999999999998863 ) ) ;
#303 = AXIS2_PLACEMENT_3D ( 'NONE', #117, #93, #221 ) ;
#304 = DIRECTION ( 'NONE',  ( 1.000000000000000000, 0.000000000000000000, -3.734305667001668009E-15 ) ) ;
#305 = AXIS2_PLACEMENT_3D ( 'NONE', #60, #275, #185 ) ;
#306 = DIRECTION ( 'NONE',  ( 3.491481338843133355E-15, -0.000000000000000000, 1.000000000000000000 ) ) ;
#307 = DIRECTION ( 'NONE',  ( 1.000000000000000000, 0.000000000000000000, -3.491481338843133355E-15 ) ) ;
#308 = VERTEX_POINT ( 'NONE', #130 ) ;
#309 = EDGE_LOOP ( 'NONE', ( #166 ) ) ;
#310 = DATE_AND_TIME ( #223, #164 ) ;
#311 = CONICAL_SURFACE ( 'NONE', #15, 0.8915358449660651941, 1.047197551196595189 ) ;
#312 = FACE_OUTER_BOUND ( 'NONE', #225, .T. ) ;
#313 = EDGE_CURVE ( 'NONE', #308, #308, #7, .T. ) ;
#314 = ADVANCED_FACE ( 'NONE', ( #29, #299 ), #92, .T. ) ;
#315 = EDGE_LOOP ( 'NONE', ( #102 ) ) ;
#316 = CARTESIAN_POINT ( 'NONE',  ( 0.000000000000000000, 0.000000000000000000, 0.000000000000000000 ) ) ;
#317 = ORIENTED_EDGE ( 'NONE', *, *, #25, .T. ) ;
#318 = EDGE_LOOP ( 'NONE', ( #2 ) ) ;
#319 = DIRECTION ( 'NONE',  ( 3.491481338843133355E-15, -0.000000000000000000, 1.000000000000000000 ) ) ;
#320 = DIRECTION ( 'NONE',  ( 3.491481338843133355E-15, -0.000000000000000000, 1.000000000000000000 ) ) ;
#321 = AXIS2_PLACEMENT_3D ( 'NONE', #119, #271, #57 ) ;
#322 = FACE_OUTER_BOUND ( 'NONE', #129, .T. ) ;
#323 = DIRECTION ( 'NONE',  ( 1.000000000000000000, 0.000000000000000000, -6.365957710006631387E-15 ) ) ;
#324 = DIRECTION ( 'NONE',  ( 3.491481338843133355E-15, -0.000000000000000000, 1.000000000000000000 ) ) ;
#325 = CARTESIAN_POINT ( 'NONE',  ( 0.000000000000000000, 0.000000000000000000, 0.000000000000000000 ) ) ;
#326 = PRODUCT_DEFINITION ( 'UNKNOWN', '', #196, #371 ) ;
#327 = CIRCLE ( 'NONE', #357, 0.8949999999999991296 ) ;
#328 = CARTESIAN_POINT ( 'NONE',  ( 1.316288464743861212E-13, 0.000000000000000000, 37.69999999999999574 ) ) ;
#329 = FACE_OUTER_BOUND ( 'NONE', #27, .T. ) ;
#330 = APPROVAL_PERSON_ORGANIZATION ( #41, #273, #188 ) ;
#331 = CARTESIAN_POINT ( 'NONE',  ( 1.982459364803460984E-32, 0.000000000000000000, 5.677989289956590239E-18 ) ) ;
#332 = DIRECTION ( 'NONE',  ( 3.491481338843133355E-15, -0.000000000000000000, 1.000000000000000000 ) ) ;
#333 = APPLICATION_CONTEXT ( 'configuration controlled 3d designs of mechanical parts and assemblies' ) ;
#334 = VERTEX_POINT ( 'NONE', #66 ) ;
#335 = ADVANCED_FACE ( 'NONE', ( #21, #180 ), #86, .T. ) ;
#336 = EDGE_CURVE ( 'NONE', #278, #278, #389, .T. ) ;
#337 = EDGE_LOOP ( 'NONE', ( #344 ) ) ;
#338 = PERSON_AND_ORGANIZATION_ROLE ( 'design_owner' ) ;
#339 = CONICAL_SURFACE ( 'NONE', #363, 0.9456624327025928700, 1.047197551196611620 ) ;
#340 = EDGE_LOOP ( 'NONE', ( #147 ) ) ;
#341 = DATE_AND_TIME ( #366, #156 ) ;
#342 = ORIENTED_EDGE ( 'NONE', *, *, #216, .T. ) ;
#343 = VERTEX_POINT ( 'NONE', #94 ) ;
#344 = ORIENTED_EDGE ( 'NONE', *, *, #393, .T. ) ;
#345 = FACE_OUTER_BOUND ( 'NONE', #340, .T. ) ;
#346 = AXIS2_PLACEMENT_3D ( 'NONE', #14, #295, #83 ) ;
#347 = PERSON_AND_ORGANIZATION ( #18, #361 ) ;
#348 = DIRECTION ( 'NONE',  ( 1.000000000000000000, 0.000000000000000000, -3.496825623737946861E-15 ) ) ;
#349 = FACE_BOUND ( 'NONE', #337, .T. ) ;
#350 = EDGE_CURVE ( 'NONE', #122, #122, #50, .T. ) ;
#351 = CARTESIAN_POINT ( 'NONE',  ( 2.793185071074506684E-14, 0.000000000000000000, 8.000000000000000000 ) ) ;
#352 = DIRECTION ( 'NONE',  ( -3.491481338843133355E-15, 0.000000000000000000, -1.000000000000000000 ) ) ;
#353 = CARTESIAN_POINT ( 'NONE',  ( 3.627489632817968147E-14, 0.000000000000000000, 10.38954323616662911 ) ) ;
#354 = LOCAL_TIME ( 10, 31, 47.00000000000000000, #111 ) ;
#355 = PLANE ( 'NONE',  #259 ) ;
#356 = CC_DESIGN_SECURITY_CLASSIFICATION ( #84, ( #196 ) ) ;
#357 = AXIS2_PLACEMENT_3D ( 'NONE', #351, #324, #170 ) ;
#358 = FACE_OUTER_BOUND ( 'NONE', #318, .T. ) ;
#359 = ORIENTED_EDGE ( 'NONE', *, *, #364, .F. ) ;
#360 = CARTESIAN_POINT ( 'NONE',  ( 1.090000000000000524, 0.000000000000000000, 0.1145833333333307891 ) ) ;
#361 = ORGANIZATION ( 'UNSPECIFIED', 'UNSPECIFIED', '' ) ;
#362 = DIRECTION ( 'NONE',  ( 1.000000000000000000, 0.000000000000000000, -3.496825623737946861E-15 ) ) ;
#363 = AXIS2_PLACEMENT_3D ( 'NONE', #9, #135, #280 ) ;
#364 = EDGE_CURVE ( 'NONE', #1, #1, #149, .T. ) ;
#365 = CARTESIAN_POINT ( 'NONE',  ( 1.345675099345788088E-15, 0.000000000000000000, 0.3854166666666658525 ) ) ;
#366 = CALENDAR_DATE ( 2023, 27, 9 ) ;
#367 = ORIENTED_EDGE ( 'NONE', *, *, #216, .F. ) ;
#368 = PERSON_AND_ORGANIZATION ( #18, #361 ) ;
#369 = EDGE_LOOP ( 'NONE', ( #121 ) ) ;
#370 = MECHANICAL_CONTEXT ( 'NONE', #333, 'mechanical' ) ;
#371 = DESIGN_CONTEXT ( 'detailed design', #283, 'design' ) ;
#372 = ORIENTED_EDGE ( 'NONE', *, *, #336, .T. ) ;
#373 = CC_DESIGN_APPROVAL ( #273, ( #326 ) ) ;
#374 = DIRECTION ( 'NONE',  ( 3.491481338843133355E-15, -0.000000000000000000, 1.000000000000000000 ) ) ;
#375 = CC_DESIGN_APPROVAL ( #127, ( #84 ) ) ;
#376 = DATE_TIME_ROLE ( 'classification_date' ) ;
#377 = CYLINDRICAL_SURFACE ( 'NONE', #346, 0.9456624327025928700 ) ;
#378 = AXIS2_PLACEMENT_3D ( 'NONE', #138, #237, #178 ) ;
#379 = EDGE_CURVE ( 'NONE', #334, #334, #255, .T. ) ;
#380 = DIRECTION ( 'NONE',  ( -1.000000000000000000, 0.000000000000000000, 3.481383122659876478E-15 ) ) ;
#381 = AXIS2_PLACEMENT_3D ( 'NONE', #328, #54, #390 ) ;
#382 = CYLINDRICAL_SURFACE ( 'NONE', #123, 1.090000000000000080 ) ;
#383 = PERSON_AND_ORGANIZATION ( #18, #361 ) ;
#384 = CARTESIAN_POINT ( 'NONE',  ( 1.745740669421567072E-15, 0.9456624327025928700, 0.5000000000000001110 ) ) ;
#385 = AXIS2_PLACEMENT_3D ( 'NONE', #195, #34, #67 ) ;
#386 = DIRECTION ( 'NONE',  ( -3.491481338843133355E-15, 0.000000000000000000, -1.000000000000000000 ) ) ;
#387 = DIRECTION ( 'NONE',  ( 3.491481338843133355E-15, -0.000000000000000000, 1.000000000000000000 ) ) ;
#388 = EDGE_LOOP ( 'NONE', ( #40 ) ) ;
#389 = CIRCLE ( 'NONE', #321, 0.9456624327025928700 ) ;
#390 = DIRECTION ( 'NONE',  ( -1.000000000000000000, 0.000000000000000000, 4.625929269271496366E-15 ) ) ;
#391 = AXIS2_PLACEMENT_3D ( 'NONE', #261, #374, #104 ) ;
#392 = DIRECTION ( 'NONE',  ( 3.491481338843133355E-15, -0.000000000000000000, 1.000000000000000000 ) ) ;
#393 = EDGE_CURVE ( 'NONE', #343, #343, #39, .T. ) ;
#394 = VERTEX_POINT ( 'NONE', #26 ) ;
#395 = CC_DESIGN_PERSON_AND_ORGANIZATION_ASSIGNMENT ( #368, #338, ( #175 ) ) ;
ENDSEC;
END-ISO-10303-21;
