ISO-10303-21;
HEADER;
FILE_DESCRIPTION (( 'STEP AP203' ),
    '1' );
FILE_NAME ('961186.step',
    '2023-09-27T08:31:47',
    ( '' ),
    ( '' ),
    'SwSTEP 2.0',
    'SolidWorks 2022',
    '' );
FILE_SCHEMA (( 'CONFIG_CONTROL_DESIGN' ));
ENDSEC;

DATA;
#1 = DIRECTION ( 'NONE',  ( 3.491481338843133355E-15, -0.000000000000000000, 1.000000000000000000 ) ) ;
#2 = DIRECTION ( 'NONE',  ( 3.491481338843133355E-15, -0.000000000000000000, 1.000000000000000000 ) ) ;
#3 = CIRCLE ( 'NONE', #288, 1.199999999999993516 ) ;
#4 = AXIS2_PLACEMENT_3D ( 'NONE', #202, #319, #38 ) ;
#5 = CARTESIAN_POINT ( 'NONE',  ( 0.8350000000000006306, 0.000000000000000000, 0.2062499999999951872 ) ) ;
#6 = DIRECTION ( 'NONE',  ( 3.491481338843133355E-15, -0.000000000000000000, 1.000000000000000000 ) ) ;
#7 = DIRECTION ( 'NONE',  ( -3.491481338843133355E-15, 0.000000000000000000, -1.000000000000000000 ) ) ;
#8 = DIRECTION ( 'NONE',  ( 1.000000000000000000, 0.000000000000000000, -4.625929269271496366E-15 ) ) ;
#9 = DIRECTION ( 'NONE',  ( 1.000000000000000000, 0.000000000000000000, -3.581382861484570853E-15 ) ) ;
#10 = VERTEX_POINT ( 'NONE', #155 ) ;
#11 = CARTESIAN_POINT ( 'NONE',  ( 8.510485763430169108E-16, 0.000000000000000000, 0.2437500000000009104 ) ) ;
#12 = CIRCLE ( 'NONE', #234, 0.5751923788646670088 ) ;
#13 = FACE_OUTER_BOUND ( 'NONE', #301, .T. ) ;
#14 = DIRECTION ( 'NONE',  ( 3.491481338843133355E-15, -0.000000000000000000, 1.000000000000000000 ) ) ;
#15 = CARTESIAN_POINT ( 'NONE',  ( 0.5751923788646687852, 0.000000000000000000, 0.5062499999999976463 ) ) ;
#16 = APPROVAL_PERSON_ORGANIZATION ( #387, #252, #53 ) ;
#17 = EDGE_LOOP ( 'NONE', ( #154 ) ) ;
#18 = LOCAL_TIME ( 10, 31, 47.00000000000000000, #179 ) ;
#19 = PERSON_AND_ORGANIZATION_ROLE ( 'creator' ) ;
#20 = ORIENTED_EDGE ( 'NONE', *, *, #342, .T. ) ;
#21 = APPROVAL ( #148, 'UNSPECIFIED' ) ;
#22 = PERSON_AND_ORGANIZATION_ROLE ( 'design_supplier' ) ;
#23 = COORDINATED_UNIVERSAL_TIME_OFFSET ( 1, 0, .AHEAD. ) ;
#24 = FACE_OUTER_BOUND ( 'NONE', #142, .T. ) ;
#25 = AXIS2_PLACEMENT_3D ( 'NONE', #188, #36, #8 ) ;
#26 = ADVANCED_FACE ( 'NONE', ( #24, #278 ), #220, .T. ) ;
#27 = EDGE_LOOP ( 'NONE', ( #112 ) ) ;
#28 = CC_DESIGN_PERSON_AND_ORGANIZATION_ASSIGNMENT ( #81, #334, ( #157 ) ) ;
#29 = DIRECTION ( 'NONE',  ( -1.000000000000000000, 0.000000000000000000, 4.625929269271496366E-15 ) ) ;
#30 = CARTESIAN_POINT ( 'NONE',  ( 0.5140741737109545406, 0.000000000000000000, 7.358819045102512391 ) ) ;
#31 = CARTESIAN_POINT ( 'NONE',  ( 1.326762908760390423E-13, 0.000000000000000000, 38.00000000000000000 ) ) ;
#32 = ADVANCED_FACE ( 'NONE', ( #257, #310 ), #238, .T. ) ;
#33 = CIRCLE ( 'NONE', #25, 1.499999999999996447 ) ;
#34 = EDGE_LOOP ( 'NONE', ( #303 ) ) ;
#35 = CARTESIAN_POINT ( 'NONE',  ( 0.8350000000000022959, 0.000000000000000000, 0.6562499999999942268 ) ) ;
#36 = DIRECTION ( 'NONE',  ( 3.491481338843133355E-15, -0.000000000000000000, 1.000000000000000000 ) ) ;
#37 = CARTESIAN_POINT ( 'NONE',  ( 2.569317937189887580E-14, 0.000000000000000000, 7.358819045102514167 ) ) ;
#38 = DIRECTION ( 'NONE',  ( 1.000000000000000000, 0.000000000000000000, -3.491481338843133750E-15 ) ) ;
#39 = DIRECTION ( 'NONE',  ( 3.491481338843133355E-15, -0.000000000000000000, 1.000000000000000000 ) ) ;
#40 = AXIS2_PLACEMENT_3D ( 'NONE', #114, #88, #58 ) ;
#41 = DIRECTION ( 'NONE',  ( 3.491481338843133355E-15, -0.000000000000000000, 1.000000000000000000 ) ) ;
#42 = DIRECTION ( 'NONE',  ( 1.000000000000000000, 0.000000000000000000, -3.374461439006788768E-15 ) ) ;
#43 = VERTEX_POINT ( 'NONE', #232 ) ;
#44 = FACE_OUTER_BOUND ( 'NONE', #392, .T. ) ;
#45 = CC_DESIGN_APPROVAL ( #252, ( #274 ) ) ;
#46 = ORIENTED_EDGE ( 'NONE', *, *, #60, .T. ) ;
#47 = EDGE_LOOP ( 'NONE', ( #80 ) ) ;
#48 = APPROVAL_DATE_TIME ( #210, #21 ) ;
#49 = APPLICATION_PROTOCOL_DEFINITION ( 'international standard', 'config_control_design', 1994, #171 ) ;
#50 = DATE_AND_TIME ( #86, #225 ) ;
#51 = LOCAL_TIME ( 10, 31, 47.00000000000000000, #275 ) ;
#52 = ADVANCED_FACE ( 'NONE', ( #251 ), #336, .F. ) ;
#53 = APPROVAL_ROLE ( '' ) ;
#54 = EDGE_LOOP ( 'NONE', ( #46 ) ) ;
#55 = COORDINATED_UNIVERSAL_TIME_OFFSET ( 1, 0, .AHEAD. ) ;
#56 = ORIENTED_EDGE ( 'NONE', *, *, #318, .F. ) ;
#57 = EDGE_CURVE ( 'NONE', #316, #316, #59, .T. ) ;
#58 = DIRECTION ( 'NONE',  ( 1.000000000000000000, 0.000000000000000000, 0.000000000000000000 ) ) ;
#59 = CIRCLE ( 'NONE', #241, 0.8350000000000000755 ) ;
#60 = EDGE_CURVE ( 'NONE', #161, #161, #12, .T. ) ;
#61 = DIRECTION ( 'NONE',  ( 1.000000000000000000, 0.000000000000000000, -3.614007241618354687E-15 ) ) ;
#62 = EDGE_LOOP ( 'NONE', ( #309 ) ) ;
#63 = ADVANCED_FACE ( 'NONE', ( #255, #94 ), #221, .T. ) ;
#64 = EDGE_LOOP ( 'NONE', ( #383 ) ) ;
#65 = CYLINDRICAL_SURFACE ( 'NONE', #279, 0.8349999999999999645 ) ;
#66 = CONICAL_SURFACE ( 'NONE', #295, 0.5140741737109288945, 0.2617993877991430240 ) ;
#67 = FACE_OUTER_BOUND ( 'NONE', #271, .T. ) ;
#68 = AXIS2_PLACEMENT_3D ( 'NONE', #335, #1, #123 ) ;
#69 = FACE_BOUND ( 'NONE', #197, .T. ) ;
#70 = DIRECTION ( 'NONE',  ( 3.491481338843133355E-15, -0.000000000000000000, 1.000000000000000000 ) ) ;
#71 = DESIGN_CONTEXT ( 'detailed design', #110, 'design' ) ;
#72 = LOCAL_TIME ( 10, 31, 47.00000000000000000, #113 ) ;
#73 = DIRECTION ( 'NONE',  ( 3.491481338843133355E-15, -0.000000000000000000, 1.000000000000000000 ) ) ;
#74 = VERTEX_POINT ( 'NONE', #172 ) ;
#75 = DIRECTION ( 'NONE',  ( 3.491481338843133355E-15, -0.000000000000000000, 1.000000000000000000 ) ) ;
#76 = ADVANCED_FACE ( 'NONE', ( #194, #312 ), #65, .T. ) ;
#77 = ADVANCED_FACE ( 'NONE', ( #95, #223 ), #90, .T. ) ;
#78 = CARTESIAN_POINT ( 'NONE',  ( 0.4777645209389174696, 0.000000000000000000, -1.668105909219559938E-15 ) ) ;
#79 = ORIENTED_EDGE ( 'NONE', *, *, #355, .T. ) ;
#80 = ORIENTED_EDGE ( 'NONE', *, *, #175, .F. ) ;
#81 = PERSON_AND_ORGANIZATION ( #178, #165 ) ;
#82 = APPROVAL_ROLE ( '' ) ;
#83 = EDGE_CURVE ( 'NONE', #311, #311, #213, .T. ) ;
#84 = TOROIDAL_SURFACE ( 'NONE', #268, 1.479999999999999094, 1.000000000000000000 ) ;
#85 = ORIENTED_EDGE ( 'NONE', *, *, #386, .F. ) ;
#86 = CALENDAR_DATE ( 2023, 27, 9 ) ;
#87 = DIRECTION ( 'NONE',  ( 1.000000000000000000, 0.000000000000000000, -4.625929269271490844E-15 ) ) ;
#88 = DIRECTION ( 'NONE',  ( 3.491481338843133355E-15, -0.000000000000000000, 1.000000000000000000 ) ) ;
#89 = ORIENTED_EDGE ( 'NONE', *, *, #57, .F. ) ;
#90 = CONICAL_SURFACE ( 'NONE', #321, 0.8350000000000000755, 1.047197551196607623 ) ;
#91 = DIRECTION ( 'NONE',  ( 1.000000000000000000, 0.000000000000000000, -3.505803431989056039E-15 ) ) ;
#92 = APPROVAL_PERSON_ORGANIZATION ( #215, #177, #82 ) ;
#93 = EDGE_CURVE ( 'NONE', #10, #10, #144, .T. ) ;
#94 = FACE_OUTER_BOUND ( 'NONE', #64, .T. ) ;
#95 = FACE_BOUND ( 'NONE', #339, .T. ) ;
#96 = DIRECTION ( 'NONE',  ( 1.000000000000000000, 0.000000000000000000, -3.581382861484571642E-15 ) ) ;
#97 = FACE_OUTER_BOUND ( 'NONE', #277, .T. ) ;
#98 = CARTESIAN_POINT ( 'NONE',  ( 1.500000000000038636, 0.000000000000000000, 11.03834432130774523 ) ) ;
#99 = FACE_BOUND ( 'NONE', #115, .T. ) ;
#100 = DIRECTION ( 'NONE',  ( 3.491481338843133355E-15, -0.000000000000000000, 1.000000000000000000 ) ) ;
#101 = CC_DESIGN_PERSON_AND_ORGANIZATION_ASSIGNMENT ( #117, #19, ( #296 ) ) ;
#102 = VERTEX_POINT ( 'NONE', #328 ) ;
#103 = CARTESIAN_POINT ( 'NONE',  ( 1.326762908760390423E-13, 0.000000000000000000, 38.00000000000000000 ) ) ;
#104 = CIRCLE ( 'NONE', #141, 0.8350000000000000755 ) ;
#105 = DIRECTION ( 'NONE',  ( 0.000000000000000000, 0.000000000000000000, 1.000000000000000000 ) ) ;
#106 = EDGE_CURVE ( 'NONE', #280, #280, #267, .T. ) ;
#107 = DIRECTION ( 'NONE',  ( 1.000000000000000000, 0.000000000000000000, -5.782411586589388010E-15 ) ) ;
#108 = DIRECTION ( 'NONE',  ( 1.000000000000000000, 0.000000000000000000, 0.000000000000000000 ) ) ;
#109 = ORIENTED_EDGE ( 'NONE', *, *, #363, .T. ) ;
#110 = APPLICATION_CONTEXT ( 'configuration controlled 3d designs of mechanical parts and assemblies' ) ;
#111 = CIRCLE ( 'NONE', #4, 0.4777645209389174696 ) ;
#112 = ORIENTED_EDGE ( 'NONE', *, *, #106, .T. ) ;
#113 = COORDINATED_UNIVERSAL_TIME_OFFSET ( 1, 0, .AHEAD. ) ;
#114 = CARTESIAN_POINT ( 'NONE',  ( 1.326762908760390423E-13, 0.000000000000000000, 38.00000000000000000 ) ) ;
#115 = EDGE_LOOP ( 'NONE', ( #109 ) ) ;
#116 = APPROVAL_DATE_TIME ( #50, #252 ) ;
#117 = PERSON_AND_ORGANIZATION ( #178, #165 ) ;
#118 = AXIS2_PLACEMENT_3D ( 'NONE', #11, #233, #133 ) ;
#119 =( GEOMETRIC_REPRESENTATION_CONTEXT ( 3 ) GLOBAL_UNCERTAINTY_ASSIGNED_CONTEXT ( ( #198 ) ) GLOBAL_UNIT_ASSIGNED_CONTEXT ( ( #270, #237, #206 ) ) REPRESENTATION_CONTEXT ( 'NONE', 'WORKASPACE' ) );
#120 = ORIENTED_EDGE ( 'NONE', *, *, #382, .T. ) ;
#121 = CC_DESIGN_PERSON_AND_ORGANIZATION_ASSIGNMENT ( #389, #332, ( #274 ) ) ;
#122 = EDGE_LOOP ( 'NONE', ( #326 ) ) ;
#123 = DIRECTION ( 'NONE',  ( 1.000000000000000000, 0.000000000000000000, -3.491481338843133355E-15 ) ) ;
#124 = CIRCLE ( 'NONE', #134, 0.5751923788646668978 ) ;
#125 = DIRECTION ( 'NONE',  ( 1.000000000000000000, 0.000000000000000000, -3.581382861484570853E-15 ) ) ;
#126 = VERTEX_POINT ( 'NONE', #131 ) ;
#127 = DIRECTION ( 'NONE',  ( 3.491481338843133355E-15, -0.000000000000000000, 1.000000000000000000 ) ) ;
#128 = CARTESIAN_POINT ( 'NONE',  ( 1.326762908760390423E-13, 0.000000000000000000, 38.00000000000000000 ) ) ;
#129 = DIRECTION ( 'NONE',  ( 3.491481338843133355E-15, -0.000000000000000000, 1.000000000000000000 ) ) ;
#130 = DIRECTION ( 'NONE',  ( 1.000000000000000000, 0.000000000000000000, -3.505803431989056433E-15 ) ) ;
#131 = CARTESIAN_POINT ( 'NONE',  ( 0.5751923788646683411, 0.000000000000000000, 0.3937499999999962697 ) ) ;
#132 = CARTESIAN_POINT ( 'NONE',  ( 1.767562427789335472E-15, 0.000000000000000000, 0.5062499999999997558 ) ) ;
#133 = DIRECTION ( 'NONE',  ( -1.000000000000000000, 0.000000000000000000, 3.505803431989056433E-15 ) ) ;
#134 = AXIS2_PLACEMENT_3D ( 'NONE', #317, #70, #226 ) ;
#135 = PLANE ( 'NONE',  #337 ) ;
#136 = FACE_OUTER_BOUND ( 'NONE', #122, .T. ) ;
#137 = MANIFOLD_SOLID_BREP ( 'Corps-Déplacer/Copier1', #182 ) ;
#138 = CARTESIAN_POINT ( 'NONE',  ( 8.510485763430169108E-16, 0.000000000000000000, 0.2437500000000009104 ) ) ;
#139 = DIRECTION ( 'NONE',  ( 1.000000000000000000, 0.000000000000000000, -3.491481338843132961E-15 ) ) ;
#140 = DIRECTION ( 'NONE',  ( 3.491481338843133355E-15, -0.000000000000000000, 1.000000000000000000 ) ) ;
#141 = AXIS2_PLACEMENT_3D ( 'NONE', #156, #282, #219 ) ;
#142 = EDGE_LOOP ( 'NONE', ( #190 ) ) ;
#143 = EDGE_LOOP ( 'NONE', ( #356 ) ) ;
#144 = CIRCLE ( 'NONE', #307, 0.4799999999999999822 ) ;
#145 = PERSON_AND_ORGANIZATION ( #178, #165 ) ;
#146 = CC_DESIGN_APPROVAL ( #177, ( #296 ) ) ;
#147 = CIRCLE ( 'NONE', #367, 0.5751923788646670088 ) ;
#148 = APPROVAL_STATUS ( 'not_yet_approved' ) ;
#149 = EDGE_LOOP ( 'NONE', ( #244 ) ) ;
#150 = PERSON_AND_ORGANIZATION_ROLE ( 'design_owner' ) ;
#151 = AXIS2_PLACEMENT_3D ( 'NONE', #291, #14, #231 ) ;
#152 = ORIENTED_EDGE ( 'NONE', *, *, #375, .T. ) ;
#153 = ORIENTED_EDGE ( 'NONE', *, *, #355, .F. ) ;
#154 = ORIENTED_EDGE ( 'NONE', *, *, #106, .F. ) ;
#155 = CARTESIAN_POINT ( 'NONE',  ( 0.4800000000000030909, 0.000000000000000000, 0.8999999999999963585 ) ) ;
#156 = CARTESIAN_POINT ( 'NONE',  ( 2.422215178822423765E-15, 0.000000000000000000, 0.6937499999999998668 ) ) ;
#157 = SECURITY_CLASSIFICATION ( '', '', #246 ) ;
#158 = DIRECTION ( 'NONE',  ( 3.491481338843133355E-15, -0.000000000000000000, 1.000000000000000000 ) ) ;
#159 = DIRECTION ( 'NONE',  ( 1.000000000000000000, 0.000000000000000000, -3.505803431989056433E-15 ) ) ;
#160 = EDGE_LOOP ( 'NONE', ( #370 ) ) ;
#161 = VERTEX_POINT ( 'NONE', #286 ) ;
#162 = CARTESIAN_POINT ( 'NONE',  ( 2.478951750578624051E-14, 0.000000000000000000, 7.099999999999998757 ) ) ;
#163 = DIRECTION ( 'NONE',  ( 1.000000000000000000, 0.000000000000000000, -3.388131789017201356E-15 ) ) ;
#164 = FACE_BOUND ( 'NONE', #62, .T. ) ;
#165 = ORGANIZATION ( 'UNSPECIFIED', 'UNSPECIFIED', '' ) ;
#166 = FACE_OUTER_BOUND ( 'NONE', #160, .T. ) ;
#167 = DIRECTION ( 'NONE',  ( 1.000000000000000000, 0.000000000000000000, -3.491481338843133750E-15 ) ) ;
#168 = EDGE_CURVE ( 'NONE', #126, #126, #124, .T. ) ;
#169 = CARTESIAN_POINT ( 'NONE',  ( 0.000000000000000000, 0.000000000000000000, 0.000000000000000000 ) ) ;
#170 = DIRECTION ( 'NONE',  ( -1.000000000000000000, 0.000000000000000000, 3.505803431989056039E-15 ) ) ;
#171 = APPLICATION_CONTEXT ( 'configuration controlled 3d designs of mechanical parts and assemblies' ) ;
#172 = CARTESIAN_POINT ( 'NONE',  ( 0.8350000000000007416, 0.000000000000000000, 0.2437499999999979960 ) ) ;
#173 = AXIS2_PLACEMENT_3D ( 'NONE', #37, #73, #350 ) ;
#174 = VERTEX_POINT ( 'NONE', #15 ) ;
#175 = EDGE_CURVE ( 'NONE', #256, #256, #3, .T. ) ;
#176 = FACE_OUTER_BOUND ( 'NONE', #359, .T. ) ;
#177 = APPROVAL ( #243, 'UNSPECIFIED' ) ;
#178 = PERSON ( 'UNSPECIFIED', 'UNSPECIFIED', 'UNSPECIFIED', ('UNSPECIFIED'), ('UNSPECIFIED'), ('UNSPECIFIED') ) ;
#179 = COORDINATED_UNIVERSAL_TIME_OFFSET ( 1, 0, .AHEAD. ) ;
#180 = CIRCLE ( 'NONE', #281, 1.500000000000000000 ) ;
#181 = EDGE_LOOP ( 'NONE', ( #153 ) ) ;
#182 = CLOSED_SHELL ( 'NONE', ( #52, #218, #76, #204, #63, #240, #330, #77, #371, #222, #227, #249, #199, #26, #32, #390 ) ) ;
#183 = DATE_AND_TIME ( #358, #51 ) ;
#184 = ORIENTED_EDGE ( 'NONE', *, *, #386, .T. ) ;
#185 = DATE_AND_TIME ( #214, #378 ) ;
#186 = DIRECTION ( 'NONE',  ( 1.000000000000000000, 0.000000000000000000, 0.000000000000000000 ) ) ;
#187 = AXIS2_PLACEMENT_3D ( 'NONE', #128, #341, #186 ) ;
#188 = CARTESIAN_POINT ( 'NONE',  ( 1.316288464743861212E-13, 0.000000000000000000, 37.69999999999999574 ) ) ;
#189 = CC_DESIGN_APPROVAL ( #21, ( #157 ) ) ;
#190 = ORIENTED_EDGE ( 'NONE', *, *, #342, .F. ) ;
#191 = CARTESIAN_POINT ( 'NONE',  ( 3.142333204958813314E-15, 0.000000000000000000, 0.8999999999999980238 ) ) ;
#192 = DIRECTION ( 'NONE',  ( 3.491481338843133355E-15, -0.000000000000000000, 1.000000000000000000 ) ) ;
#193 = CC_DESIGN_DATE_AND_TIME_ASSIGNMENT ( #185, #305, ( #157 ) ) ;
#194 = FACE_OUTER_BOUND ( 'NONE', #209, .T. ) ;
#195 = DIRECTION ( 'NONE',  ( 3.491481338843133355E-15, -0.000000000000000000, 1.000000000000000000 ) ) ;
#196 = AXIS2_PLACEMENT_3D ( 'NONE', #138, #39, #159 ) ;
#197 = EDGE_LOOP ( 'NONE', ( #217 ) ) ;
#198 = UNCERTAINTY_MEASURE_WITH_UNIT (LENGTH_MEASURE( 1.000000000000000082E-05 ), #270, 'distance_accuracy_value', 'NONE');
#199 = ADVANCED_FACE ( 'NONE', ( #203, #69 ), #66, .T. ) ;
#200 = DIRECTION ( 'NONE',  ( -1.000000000000000000, 0.000000000000000000, 3.491481338843133355E-15 ) ) ;
#201 = CARTESIAN_POINT ( 'NONE',  ( 0.000000000000000000, 0.000000000000000000, 0.000000000000000000 ) ) ;
#202 = CARTESIAN_POINT ( 'NONE',  ( 0.000000000000000000, 0.000000000000000000, 0.000000000000000000 ) ) ;
#203 = FACE_OUTER_BOUND ( 'NONE', #34, .T. ) ;
#204 = ADVANCED_FACE ( 'NONE', ( #376, #44 ), #253, .T. ) ;
#205 = CARTESIAN_POINT ( 'NONE',  ( 3.142333204958813314E-15, 0.000000000000000000, 0.8999999999999980238 ) ) ;
#206 =( NAMED_UNIT ( * ) SI_UNIT ( $, .STERADIAN. ) SOLID_ANGLE_UNIT ( ) );
#207 = CYLINDRICAL_SURFACE ( 'NONE', #151, 0.4799999999999995381 ) ;
#208 = FACE_OUTER_BOUND ( 'NONE', #181, .T. ) ;
#209 = EDGE_LOOP ( 'NONE', ( #85 ) ) ;
#210 = DATE_AND_TIME ( #331, #72 ) ;
#211 = PERSON_AND_ORGANIZATION ( #178, #165 ) ;
#212 = ORIENTED_EDGE ( 'NONE', *, *, #60, .F. ) ;
#213 = CIRCLE ( 'NONE', #173, 0.5140741737109288945 ) ;
#214 = CALENDAR_DATE ( 2023, 27, 9 ) ;
#215 = PERSON_AND_ORGANIZATION ( #178, #165 ) ;
#216 = CARTESIAN_POINT ( 'NONE',  ( 1.316288464743861212E-13, 0.000000000000000000, 37.69999999999999574 ) ) ;
#217 = ORIENTED_EDGE ( 'NONE', *, *, #83, .T. ) ;
#218 = ADVANCED_FACE ( 'NONE', ( #346, #262 ), #391, .T. ) ;
#219 = DIRECTION ( 'NONE',  ( 1.000000000000000000, 0.000000000000000000, -3.505803431989056039E-15 ) ) ;
#220 = CYLINDRICAL_SURFACE ( 'NONE', #263, 1.499999999999998224 ) ;
#221 = CYLINDRICAL_SURFACE ( 'NONE', #187, 0.5751923788646670088 ) ;
#222 = ADVANCED_FACE ( 'NONE', ( #164, #13 ), #374, .F. ) ;
#223 = FACE_OUTER_BOUND ( 'NONE', #248, .T. ) ;
#224 = AXIS2_PLACEMENT_3D ( 'NONE', #201, #75, #167 ) ;
#225 = LOCAL_TIME ( 10, 31, 47.00000000000000000, #23 ) ;
#226 = DIRECTION ( 'NONE',  ( 1.000000000000000000, 0.000000000000000000, -3.487135944077082479E-15 ) ) ;
#227 = ADVANCED_FACE ( 'NONE', ( #136, #264 ), #207, .T. ) ;
#228 = CARTESIAN_POINT ( 'NONE',  ( 1.326762908760390423E-13, 0.000000000000000000, 38.00000000000000000 ) ) ;
#229 = CARTESIAN_POINT ( 'NONE',  ( 1.767562427789335472E-15, 0.000000000000000000, 0.5062499999999997558 ) ) ;
#230 = PRODUCT_DEFINITION_SHAPE ( 'NONE', 'NONE',  #274 ) ;
#231 = DIRECTION ( 'NONE',  ( 1.000000000000000000, 0.000000000000000000, 0.000000000000000000 ) ) ;
#232 = CARTESIAN_POINT ( 'NONE',  ( 0.5751923788646701174, 0.000000000000000000, 0.8999999999999959144 ) ) ;
#233 = DIRECTION ( 'NONE',  ( -3.491481338843133355E-15, 0.000000000000000000, -1.000000000000000000 ) ) ;
#234 = AXIS2_PLACEMENT_3D ( 'NONE', #343, #2, #125 ) ;
#235 = CIRCLE ( 'NONE', #393, 0.5751923788646668978 ) ;
#236 = DIRECTION ( 'NONE',  ( 1.000000000000000000, 0.000000000000000000, -3.469446951953614189E-15 ) ) ;
#237 =( NAMED_UNIT ( * ) PLANE_ANGLE_UNIT ( ) SI_UNIT ( $, .RADIAN. ) );
#238 = CONICAL_SURFACE ( 'NONE', #349, 1.499999999999996447, 0.7853981633974501664 ) ;
#239 = ORIENTED_EDGE ( 'NONE', *, *, #93, .T. ) ;
#240 = ADVANCED_FACE ( 'NONE', ( #324, #99 ), #345, .T. ) ;
#241 = AXIS2_PLACEMENT_3D ( 'NONE', #366, #6, #91 ) ;
#242 = CARTESIAN_POINT ( 'NONE',  ( 0.8350000000000024070, 0.000000000000000000, 0.6937499999999969802 ) ) ;
#243 = APPROVAL_STATUS ( 'not_yet_approved' ) ;
#244 = ORIENTED_EDGE ( 'NONE', *, *, #318, .T. ) ;
#245 = DATE_TIME_ROLE ( 'creation_date' ) ;
#246 = SECURITY_CLASSIFICATION_LEVEL ( 'unclassified' ) ;
#247 = EDGE_LOOP ( 'NONE', ( #298 ) ) ;
#248 = EDGE_LOOP ( 'NONE', ( #79 ) ) ;
#249 = ADVANCED_FACE ( 'NONE', ( #67, #97 ), #84, .F. ) ;
#250 = CYLINDRICAL_SURFACE ( 'NONE', #261, 0.5751923788646670088 ) ;
#251 = FACE_OUTER_BOUND ( 'NONE', #394, .T. ) ;
#252 = APPROVAL ( #362, 'UNSPECIFIED' ) ;
#253 = CONICAL_SURFACE ( 'NONE', #118, 0.8349999999999999645, 1.047197551196607623 ) ;
#254 = APPROVAL_PERSON_ORGANIZATION ( #145, #21, #272 ) ;
#255 = FACE_OUTER_BOUND ( 'NONE', #364, .T. ) ;
#256 = VERTEX_POINT ( 'NONE', #373 ) ;
#257 = FACE_BOUND ( 'NONE', #47, .T. ) ;
#258 = DIRECTION ( 'NONE',  ( 1.000000000000000000, 0.000000000000000000, 0.000000000000000000 ) ) ;
#259 = CARTESIAN_POINT ( 'NONE',  ( 7.201180261363896478E-16, 0.000000000000000000, 0.2062499999999981015 ) ) ;
#260 = DIRECTION ( 'NONE',  ( 3.491481338843133355E-15, -0.000000000000000000, 1.000000000000000000 ) ) ;
#261 = AXIS2_PLACEMENT_3D ( 'NONE', #228, #129, #258 ) ;
#262 = FACE_BOUND ( 'NONE', #149, .T. ) ;
#263 = AXIS2_PLACEMENT_3D ( 'NONE', #365, #192, #87 ) ;
#264 = FACE_OUTER_BOUND ( 'NONE', #353, .T. ) ;
#265 = DIRECTION ( 'NONE',  ( 3.491481338843133355E-15, -0.000000000000000000, 1.000000000000000000 ) ) ;
#266 = CC_DESIGN_PERSON_AND_ORGANIZATION_ASSIGNMENT ( #273, #22, ( #296 ) ) ;
#267 = CIRCLE ( 'NONE', #372, 0.8349999999999999645 ) ;
#268 = AXIS2_PLACEMENT_3D ( 'NONE', #285, #265, #139 ) ;
#269 = MECHANICAL_CONTEXT ( 'NONE', #171, 'mechanical' ) ;
#270 =( LENGTH_UNIT ( ) NAMED_UNIT ( * ) SI_UNIT ( .MILLI., .METRE. ) );
#271 = EDGE_LOOP ( 'NONE', ( #329 ) ) ;
#272 = APPROVAL_ROLE ( '' ) ;
#273 = PERSON_AND_ORGANIZATION ( #178, #165 ) ;
#274 = PRODUCT_DEFINITION ( 'UNKNOWN', '', #296, #71 ) ;
#275 = COORDINATED_UNIVERSAL_TIME_OFFSET ( 1, 0, .AHEAD. ) ;
#276 = EDGE_LOOP ( 'NONE', ( #89 ) ) ;
#277 = EDGE_LOOP ( 'NONE', ( #152 ) ) ;
#278 = FACE_OUTER_BOUND ( 'NONE', #306, .T. ) ;
#279 = AXIS2_PLACEMENT_3D ( 'NONE', #31, #158, #283 ) ;
#280 = VERTEX_POINT ( 'NONE', #5 ) ;
#281 = AXIS2_PLACEMENT_3D ( 'NONE', #348, #140, #236 ) ;
#282 = DIRECTION ( 'NONE',  ( 3.491481338843133355E-15, -0.000000000000000000, 1.000000000000000000 ) ) ;
#283 = DIRECTION ( 'NONE',  ( 1.000000000000000000, 0.000000000000000000, 0.000000000000000000 ) ) ;
#284 = CC_DESIGN_DATE_AND_TIME_ASSIGNMENT ( #183, #245, ( #274 ) ) ;
#285 = CARTESIAN_POINT ( 'NONE',  ( 2.478951750578624367E-14, 0.000000000000000000, 7.099999999999999645 ) ) ;
#286 = CARTESIAN_POINT ( 'NONE',  ( 0.5751923788646700064, 0.000000000000000000, 0.8437499999999952260 ) ) ;
#287 = DIRECTION ( 'NONE',  ( 3.491481338843133355E-15, -0.000000000000000000, 1.000000000000000000 ) ) ;
#288 = AXIS2_PLACEMENT_3D ( 'NONE', #103, #287, #107 ) ;
#289 = AXIS2_PLACEMENT_3D ( 'NONE', #229, #100, #9 ) ;
#290 = DIRECTION ( 'NONE',  ( 3.491481338843133355E-15, -0.000000000000000000, 1.000000000000000000 ) ) ;
#291 = CARTESIAN_POINT ( 'NONE',  ( 1.326762908760390423E-13, 0.000000000000000000, 38.00000000000000000 ) ) ;
#292 = VERTEX_POINT ( 'NONE', #297 ) ;
#293 = ADVANCED_BREP_SHAPE_REPRESENTATION ( '961186', ( #137, #361 ), #119 ) ;
#294 = DIRECTION ( 'NONE',  ( -3.491481338843133355E-15, 0.000000000000000000, -1.000000000000000000 ) ) ;
#295 = AXIS2_PLACEMENT_3D ( 'NONE', #352, #41, #42 ) ;
#296 = PRODUCT_DEFINITION_FORMATION_WITH_SPECIFIED_SOURCE ( 'ANY', '', #327, .NOT_KNOWN. ) ;
#297 = CARTESIAN_POINT ( 'NONE',  ( 0.4800000000000238520, 0.000000000000000000, 7.099999999999996980 ) ) ;
#298 = ORIENTED_EDGE ( 'NONE', *, *, #382, .F. ) ;
#299 = CC_DESIGN_SECURITY_CLASSIFICATION ( #157, ( #296 ) ) ;
#300 = CALENDAR_DATE ( 2023, 27, 9 ) ;
#301 = EDGE_LOOP ( 'NONE', ( #120 ) ) ;
#302 = APPROVAL_DATE_TIME ( #385, #177 ) ;
#303 = ORIENTED_EDGE ( 'NONE', *, *, #304, .F. ) ;
#304 = EDGE_CURVE ( 'NONE', #369, #369, #180, .T. ) ;
#305 = DATE_TIME_ROLE ( 'classification_date' ) ;
#306 = EDGE_LOOP ( 'NONE', ( #333 ) ) ;
#307 = AXIS2_PLACEMENT_3D ( 'NONE', #205, #290, #163 ) ;
#308 = AXIS2_PLACEMENT_3D ( 'NONE', #162, #260, #61 ) ;
#309 = ORIENTED_EDGE ( 'NONE', *, *, #93, .F. ) ;
#310 = FACE_OUTER_BOUND ( 'NONE', #354, .T. ) ;
#311 = VERTEX_POINT ( 'NONE', #30 ) ;
#312 = FACE_OUTER_BOUND ( 'NONE', #27, .T. ) ;
#313 = CIRCLE ( 'NONE', #196, 0.8349999999999999645 ) ;
#314 = FACE_OUTER_BOUND ( 'NONE', #54, .T. ) ;
#315 = CARTESIAN_POINT ( 'NONE',  ( 2.422215178822423765E-15, 0.000000000000000000, 0.6937499999999998668 ) ) ;
#316 = VERTEX_POINT ( 'NONE', #35 ) ;
#317 = CARTESIAN_POINT ( 'NONE',  ( 1.374770777169477842E-15, 0.000000000000000000, 0.3937499999999982681 ) ) ;
#318 = EDGE_CURVE ( 'NONE', #347, #347, #111, .T. ) ;
#319 = DIRECTION ( 'NONE',  ( 3.491481338843133355E-15, -0.000000000000000000, 1.000000000000000000 ) ) ;
#320 = CC_DESIGN_PERSON_AND_ORGANIZATION_ASSIGNMENT ( #211, #150, ( #327 ) ) ;
#321 = AXIS2_PLACEMENT_3D ( 'NONE', #315, #322, #170 ) ;
#322 = DIRECTION ( 'NONE',  ( -3.491481338843133355E-15, 0.000000000000000000, -1.000000000000000000 ) ) ;
#323 = DIRECTION ( 'NONE',  ( 3.491481338843133355E-15, -0.000000000000000000, 1.000000000000000000 ) ) ;
#324 = FACE_OUTER_BOUND ( 'NONE', #276, .T. ) ;
#325 = CYLINDRICAL_SURFACE ( 'NONE', #40, 0.8350000000000000755 ) ;
#326 = ORIENTED_EDGE ( 'NONE', *, *, #375, .F. ) ;
#327 = PRODUCT ( '961186', '961186', '', ( #269 ) ) ;
#328 = CARTESIAN_POINT ( 'NONE',  ( 1.500000000000127898, 0.000000000000000000, 37.69999999999998863 ) ) ;
#329 = ORIENTED_EDGE ( 'NONE', *, *, #83, .F. ) ;
#330 = ADVANCED_FACE ( 'NONE', ( #208, #176 ), #325, .T. ) ;
#331 = CALENDAR_DATE ( 2023, 27, 9 ) ;
#332 = PERSON_AND_ORGANIZATION_ROLE ( 'creator' ) ;
#333 = ORIENTED_EDGE ( 'NONE', *, *, #304, .T. ) ;
#334 = PERSON_AND_ORGANIZATION_ROLE ( 'classification_officer' ) ;
#335 = CARTESIAN_POINT ( 'NONE',  ( -1.788417692221601095E-32, 0.000000000000000000, -5.122231851349876900E-18 ) ) ;
#336 = PLANE ( 'NONE',  #68 ) ;
#337 = AXIS2_PLACEMENT_3D ( 'NONE', #340, #7, #200 ) ;
#338 = FACE_OUTER_BOUND ( 'NONE', #247, .T. ) ;
#339 = EDGE_LOOP ( 'NONE', ( #212 ) ) ;
#340 = CARTESIAN_POINT ( 'NONE',  ( 1.326762908760390423E-13, 1.199999999999993516, 38.00000000000000000 ) ) ;
#341 = DIRECTION ( 'NONE',  ( 3.491481338843133355E-15, -0.000000000000000000, 1.000000000000000000 ) ) ;
#342 = EDGE_CURVE ( 'NONE', #102, #102, #33, .T. ) ;
#343 = CARTESIAN_POINT ( 'NONE',  ( 2.945937379648884302E-15, 0.000000000000000000, 0.8437499999999973355 ) ) ;
#344 = AXIS2_PLACEMENT_3D ( 'NONE', #351, #294, #377 ) ;
#345 = CONICAL_SURFACE ( 'NONE', #289, 0.5751923788646670088, 1.047197551196607623 ) ;
#346 = FACE_OUTER_BOUND ( 'NONE', #17, .T. ) ;
#347 = VERTEX_POINT ( 'NONE', #78 ) ;
#348 = CARTESIAN_POINT ( 'NONE',  ( 3.854017320957107845E-14, 0.000000000000000000, 11.03834432130775056 ) ) ;
#349 = AXIS2_PLACEMENT_3D ( 'NONE', #216, #368, #29 ) ;
#350 = DIRECTION ( 'NONE',  ( 1.000000000000000000, 0.000000000000000000, -3.374461439006788768E-15 ) ) ;
#351 = CARTESIAN_POINT ( 'NONE',  ( 3.142333204958820020E-15, 0.5751923788646668978, 0.9000000000000000222 ) ) ;
#352 = CARTESIAN_POINT ( 'NONE',  ( 2.569317937189887580E-14, 0.000000000000000000, 7.358819045102514167 ) ) ;
#353 = EDGE_LOOP ( 'NONE', ( #239 ) ) ;
#354 = EDGE_LOOP ( 'NONE', ( #20 ) ) ;
#355 = EDGE_CURVE ( 'NONE', #379, #379, #104, .T. ) ;
#356 = ORIENTED_EDGE ( 'NONE', *, *, #168, .F. ) ;
#357 = PRODUCT_RELATED_PRODUCT_CATEGORY ( 'detail', '', ( #327 ) ) ;
#358 = CALENDAR_DATE ( 2023, 27, 9 ) ;
#359 = EDGE_LOOP ( 'NONE', ( #380 ) ) ;
#360 = APPLICATION_PROTOCOL_DEFINITION ( 'international standard', 'config_control_design', 1994, #110 ) ;
#361 = AXIS2_PLACEMENT_3D ( 'NONE', #169, #105, #108 ) ;
#362 = APPROVAL_STATUS ( 'not_yet_approved' ) ;
#363 = EDGE_CURVE ( 'NONE', #174, #174, #147, .T. ) ;
#364 = EDGE_LOOP ( 'NONE', ( #388 ) ) ;
#365 = CARTESIAN_POINT ( 'NONE',  ( 1.326762908760390423E-13, 0.000000000000000000, 38.00000000000000000 ) ) ;
#366 = CARTESIAN_POINT ( 'NONE',  ( 2.291284628615796404E-15, 0.000000000000000000, 0.6562499999999971134 ) ) ;
#367 = AXIS2_PLACEMENT_3D ( 'NONE', #132, #127, #395 ) ;
#368 = DIRECTION ( 'NONE',  ( -3.491481338843133355E-15, 0.000000000000000000, -1.000000000000000000 ) ) ;
#369 = VERTEX_POINT ( 'NONE', #98 ) ;
#370 = ORIENTED_EDGE ( 'NONE', *, *, #175, .T. ) ;
#371 = ADVANCED_FACE ( 'NONE', ( #338, #314 ), #250, .T. ) ;
#372 = AXIS2_PLACEMENT_3D ( 'NONE', #259, #323, #130 ) ;
#373 = CARTESIAN_POINT ( 'NONE',  ( 1.200000000000126299, 0.000000000000000000, 37.99999999999999289 ) ) ;
#374 = PLANE ( 'NONE',  #344 ) ;
#375 = EDGE_CURVE ( 'NONE', #292, #292, #381, .T. ) ;
#376 = FACE_BOUND ( 'NONE', #143, .T. ) ;
#377 = DIRECTION ( 'NONE',  ( -1.000000000000000000, 0.000000000000000000, 3.491481338843133355E-15 ) ) ;
#378 = LOCAL_TIME ( 10, 31, 47.00000000000000000, #55 ) ;
#379 = VERTEX_POINT ( 'NONE', #242 ) ;
#380 = ORIENTED_EDGE ( 'NONE', *, *, #57, .T. ) ;
#381 = CIRCLE ( 'NONE', #308, 0.4799999999999990941 ) ;
#382 = EDGE_CURVE ( 'NONE', #43, #43, #235, .T. ) ;
#383 = ORIENTED_EDGE ( 'NONE', *, *, #168, .T. ) ;
#384 = SHAPE_DEFINITION_REPRESENTATION ( #230, #293 ) ;
#385 = DATE_AND_TIME ( #300, #18 ) ;
#386 = EDGE_CURVE ( 'NONE', #74, #74, #313, .T. ) ;
#387 = PERSON_AND_ORGANIZATION ( #178, #165 ) ;
#388 = ORIENTED_EDGE ( 'NONE', *, *, #363, .F. ) ;
#389 = PERSON_AND_ORGANIZATION ( #178, #165 ) ;
#390 = ADVANCED_FACE ( 'NONE', ( #166 ), #135, .F. ) ;
#391 = CONICAL_SURFACE ( 'NONE', #224, 0.4777645209389174696, 1.047197551196603627 ) ;
#392 = EDGE_LOOP ( 'NONE', ( #184 ) ) ;
#393 = AXIS2_PLACEMENT_3D ( 'NONE', #191, #195, #96 ) ;
#394 = EDGE_LOOP ( 'NONE', ( #56 ) ) ;
#395 = DIRECTION ( 'NONE',  ( 1.000000000000000000, 0.000000000000000000, -3.581382861484570853E-15 ) ) ;
ENDSEC;
END-ISO-10303-21;
