ISO-10303-21;
HEADER;
FILE_DESCRIPTION (( 'STEP AP203' ),
    '1' );
FILE_NAME ('961185.step',
    '2023-09-27T08:31:46',
    ( '' ),
    ( '' ),
    'SwSTEP 2.0',
    'SolidWorks 2022',
    '' );
FILE_SCHEMA (( 'CONFIG_CONTROL_DESIGN' ));
ENDSEC;

DATA;
#1 = DIRECTION ( 'NONE',  ( 3.491481338843133355E-15, -0.000000000000000000, 1.000000000000000000 ) ) ;
#2 = EDGE_CURVE ( 'NONE', #379, #379, #365, .T. ) ;
#3 = AXIS2_PLACEMENT_3D ( 'NONE', #143, #336, #168 ) ;
#4 = PLANE ( 'NONE',  #73 ) ;
#5 = CARTESIAN_POINT ( 'NONE',  ( 3.782438117080129010E-16, 0.000000000000000000, 0.1083333333333352799 ) ) ;
#6 = AXIS2_PLACEMENT_3D ( 'NONE', #87, #183, #213 ) ;
#7 =( GEOMETRIC_REPRESENTATION_CONTEXT ( 3 ) GLOBAL_UNCERTAINTY_ASSIGNED_CONTEXT ( ( #196 ) ) GLOBAL_UNIT_ASSIGNED_CONTEXT ( ( #199, #256, #377 ) ) REPRESENTATION_CONTEXT ( 'NONE', 'WORKASPACE' ) );
#8 = ORIENTED_EDGE ( 'NONE', *, *, #148, .T. ) ;
#9 = ORIENTED_EDGE ( 'NONE', *, *, #104, .F. ) ;
#10 = ORIENTED_EDGE ( 'NONE', *, *, #219, .T. ) ;
#11 = CIRCLE ( 'NONE', #212, 0.9699999999999999734 ) ;
#12 = EDGE_CURVE ( 'NONE', #48, #48, #19, .T. ) ;
#13 = DIRECTION ( 'NONE',  ( 1.000000000000000000, 0.000000000000000000, 0.000000000000000000 ) ) ;
#14 = ORIENTED_EDGE ( 'NONE', *, *, #126, .T. ) ;
#15 = CALENDAR_DATE ( 2023, 27, 9 ) ;
#16 = EDGE_LOOP ( 'NONE', ( #319 ) ) ;
#17 = FACE_OUTER_BOUND ( 'NONE', #251, .T. ) ;
#18 = CARTESIAN_POINT ( 'NONE',  ( 2.569317937189887580E-14, 0.000000000000000000, 7.358819045102514167 ) ) ;
#19 = CIRCLE ( 'NONE', #65, 0.8545299461620741166 ) ;
#20 = VERTEX_POINT ( 'NONE', #306 ) ;
#21 = CIRCLE ( 'NONE', #6, 0.9699999999999999734 ) ;
#22 = DIRECTION ( 'NONE',  ( 1.000000000000000000, 0.000000000000000000, -3.489118184478044380E-15 ) ) ;
#23 = DIRECTION ( 'NONE',  ( 1.000000000000000000, 0.000000000000000000, -3.489118184478044380E-15 ) ) ;
#24 = CARTESIAN_POINT ( 'NONE',  ( 1.326762908760390423E-13, 0.000000000000000000, 38.00000000000000000 ) ) ;
#25 = CARTESIAN_POINT ( 'NONE',  ( 1.200000000000126299, 0.000000000000000000, 37.99999999999999289 ) ) ;
#26 = CARTESIAN_POINT ( 'NONE',  ( 1.326762908760390423E-13, 0.000000000000000000, 38.00000000000000000 ) ) ;
#27 = AXIS2_PLACEMENT_3D ( 'NONE', #370, #279, #179 ) ;
#28 = FACE_OUTER_BOUND ( 'NONE', #290, .T. ) ;
#29 = AXIS2_PLACEMENT_3D ( 'NONE', #144, #271, #273 ) ;
#30 = FACE_BOUND ( 'NONE', #253, .T. ) ;
#31 = DIRECTION ( 'NONE',  ( 1.000000000000000000, 0.000000000000000000, 0.000000000000000000 ) ) ;
#32 = AXIS2_PLACEMENT_3D ( 'NONE', #135, #360, #43 ) ;
#33 = DIRECTION ( 'NONE',  ( -3.491481338843133355E-15, 0.000000000000000000, -1.000000000000000000 ) ) ;
#34 = APPLICATION_CONTEXT ( 'configuration controlled 3d designs of mechanical parts and assemblies' ) ;
#35 = ORIENTED_EDGE ( 'NONE', *, *, #318, .T. ) ;
#36 = AXIS2_PLACEMENT_3D ( 'NONE', #176, #333, #308 ) ;
#37 = ORIENTED_EDGE ( 'NONE', *, *, #219, .F. ) ;
#38 = APPROVAL_STATUS ( 'not_yet_approved' ) ;
#39 = EDGE_LOOP ( 'NONE', ( #230 ) ) ;
#40 = CC_DESIGN_PERSON_AND_ORGANIZATION_ASSIGNMENT ( #46, #296, ( #383 ) ) ;
#41 = ORIENTED_EDGE ( 'NONE', *, *, #246, .T. ) ;
#42 = CIRCLE ( 'NONE', #27, 0.8545299461620741166 ) ;
#43 = DIRECTION ( 'NONE',  ( 1.000000000000000000, 0.000000000000000000, -4.625929269271490844E-15 ) ) ;
#44 = VERTEX_POINT ( 'NONE', #193 ) ;
#45 = MECHANICAL_CONTEXT ( 'NONE', #34, 'mechanical' ) ;
#46 = PERSON_AND_ORGANIZATION ( #287, #316 ) ;
#47 = DIRECTION ( 'NONE',  ( 3.491481338843133355E-15, -0.000000000000000000, 1.000000000000000000 ) ) ;
#48 = VERTEX_POINT ( 'NONE', #173 ) ;
#49 = CIRCLE ( 'NONE', #324, 0.8149999999999999467 ) ;
#50 = CARTESIAN_POINT ( 'NONE',  ( 1.396592535537244862E-15, 0.000000000000000000, 0.3999999999999975797 ) ) ;
#51 = FACE_OUTER_BOUND ( 'NONE', #345, .T. ) ;
#52 = DIRECTION ( 'NONE',  ( 1.000000000000000000, 0.000000000000000000, -3.492919370120826356E-15 ) ) ;
#53 = CYLINDRICAL_SURFACE ( 'NONE', #59, 0.9699999999999999734 ) ;
#54 = AXIS2_PLACEMENT_3D ( 'NONE', #368, #55, #310 ) ;
#55 = DIRECTION ( 'NONE',  ( -3.491481338843133355E-15, 0.000000000000000000, -1.000000000000000000 ) ) ;
#56 = LOCAL_TIME ( 10, 31, 46.00000000000000000, #387 ) ;
#57 = FACE_OUTER_BOUND ( 'NONE', #166, .T. ) ;
#58 = FACE_OUTER_BOUND ( 'NONE', #190, .T. ) ;
#59 = AXIS2_PLACEMENT_3D ( 'NONE', #390, #209, #359 ) ;
#60 = CONICAL_SURFACE ( 'NONE', #394, 0.8545299461620741166, 1.047197551196603182 ) ;
#61 = DIRECTION ( 'NONE',  ( 1.000000000000000000, 0.000000000000000000, 0.000000000000000000 ) ) ;
#62 = DIRECTION ( 'NONE',  ( -1.000000000000000000, 0.000000000000000000, 3.491481338843133355E-15 ) ) ;
#63 = ADVANCED_FACE ( 'NONE', ( #262 ), #114, .F. ) ;
#64 = EDGE_LOOP ( 'NONE', ( #93 ) ) ;
#65 = AXIS2_PLACEMENT_3D ( 'NONE', #239, #392, #393 ) ;
#66 = ORIENTED_EDGE ( 'NONE', *, *, #126, .F. ) ;
#67 = CALENDAR_DATE ( 2023, 27, 9 ) ;
#68 = PRODUCT_DEFINITION ( 'UNKNOWN', '', #309, #131 ) ;
#69 = ORIENTED_EDGE ( 'NONE', *, *, #246, .F. ) ;
#70 = ORIENTED_EDGE ( 'NONE', *, *, #152, .F. ) ;
#71 = VERTEX_POINT ( 'NONE', #142 ) ;
#72 = COORDINATED_UNIVERSAL_TIME_OFFSET ( 1, 0, .AHEAD. ) ;
#73 = AXIS2_PLACEMENT_3D ( 'NONE', #249, #122, #123 ) ;
#74 = CONICAL_SURFACE ( 'NONE', #293, 0.8112286759728523089, 1.047197551196614063 ) ;
#75 = DIRECTION ( 'NONE',  ( 1.000000000000000000, 0.000000000000000000, -3.491481338843133355E-15 ) ) ;
#76 = CARTESIAN_POINT ( 'NONE',  ( 0.9700000000000009726, 0.000000000000000000, 0.3083333333333306836 ) ) ;
#77 = DIRECTION ( 'NONE',  ( 3.491481338843133355E-15, -0.000000000000000000, 1.000000000000000000 ) ) ;
#78 = DIRECTION ( 'NONE',  ( -3.491481338843133355E-15, 0.000000000000000000, -1.000000000000000000 ) ) ;
#79 = FACE_OUTER_BOUND ( 'NONE', #260, .T. ) ;
#80 = CARTESIAN_POINT ( 'NONE',  ( 1.500000000000127898, 0.000000000000000000, 37.69999999999998863 ) ) ;
#81 = EDGE_LOOP ( 'NONE', ( #37 ) ) ;
#82 = FACE_OUTER_BOUND ( 'NONE', #81, .T. ) ;
#83 = CYLINDRICAL_SURFACE ( 'NONE', #108, 0.8545299461620741166 ) ;
#84 = AXIS2_PLACEMENT_3D ( 'NONE', #332, #357, #203 ) ;
#85 = CARTESIAN_POINT ( 'NONE',  ( 1.326762908760390423E-13, 0.000000000000000000, 38.00000000000000000 ) ) ;
#86 = LOCAL_TIME ( 10, 31, 46.00000000000000000, #72 ) ;
#87 = CARTESIAN_POINT ( 'NONE',  ( 1.018348723829256169E-15, 0.000000000000000000, 0.2916666666666692387 ) ) ;
#88 = CYLINDRICAL_SURFACE ( 'NONE', #217, 0.9699999999999999734 ) ;
#89 = FACE_OUTER_BOUND ( 'NONE', #39, .T. ) ;
#90 = FACE_BOUND ( 'NONE', #103, .T. ) ;
#91 = CC_DESIGN_PERSON_AND_ORGANIZATION_ASSIGNMENT ( #355, #347, ( #309 ) ) ;
#92 = ORIENTED_EDGE ( 'NONE', *, *, #208, .T. ) ;
#93 = ORIENTED_EDGE ( 'NONE', *, *, #208, .F. ) ;
#94 = EDGE_CURVE ( 'NONE', #382, #382, #292, .T. ) ;
#95 = APPROVAL_ROLE ( '' ) ;
#96 = ORIENTED_EDGE ( 'NONE', *, *, #381, .T. ) ;
#97 = TOROIDAL_SURFACE ( 'NONE', #36, 1.814999999999999059, 1.000000000000000000 ) ;
#98 = CIRCLE ( 'NONE', #342, 0.8545299461620741166 ) ;
#99 = DATE_AND_TIME ( #133, #132 ) ;
#100 = EDGE_LOOP ( 'NONE', ( #185 ) ) ;
#101 = CARTESIAN_POINT ( 'NONE',  ( 0.8545299461620747827, 0.000000000000000000, 0.2250000000000000056 ) ) ;
#102 = APPROVAL_ROLE ( '' ) ;
#103 = EDGE_LOOP ( 'NONE', ( #96 ) ) ;
#104 = EDGE_CURVE ( 'NONE', #231, #231, #311, .T. ) ;
#105 = CARTESIAN_POINT ( 'NONE',  ( 0.8490741737109546161, 0.000000000000000000, 7.358819045102512391 ) ) ;
#106 = APPROVAL_ROLE ( '' ) ;
#107 = FACE_OUTER_BOUND ( 'NONE', #331, .T. ) ;
#108 = AXIS2_PLACEMENT_3D ( 'NONE', #247, #211, #215 ) ;
#109 = FACE_OUTER_BOUND ( 'NONE', #127, .T. ) ;
#110 = LOCAL_TIME ( 10, 31, 46.00000000000000000, #111 ) ;
#111 = COORDINATED_UNIVERSAL_TIME_OFFSET ( 1, 0, .AHEAD. ) ;
#112 = FACE_OUTER_BOUND ( 'NONE', #325, .T. ) ;
#113 = CARTESIAN_POINT ( 'NONE',  ( 1.076540079476635283E-15, 0.000000000000000000, 0.3083333333333340698 ) ) ;
#114 = PLANE ( 'NONE',  #151 ) ;
#115 = CARTESIAN_POINT ( 'NONE',  ( 0.000000000000000000, 0.000000000000000000, 0.000000000000000000 ) ) ;
#116 = CARTESIAN_POINT ( 'NONE',  ( 1.316288464743861212E-13, 0.000000000000000000, 37.69999999999999574 ) ) ;
#117 = AXIS2_PLACEMENT_3D ( 'NONE', #216, #343, #61 ) ;
#118 = DIRECTION ( 'NONE',  ( 1.000000000000000000, 0.000000000000000000, -4.625929269271496366E-15 ) ) ;
#119 = EDGE_CURVE ( 'NONE', #326, #326, #49, .T. ) ;
#120 = AXIS2_PLACEMENT_3D ( 'NONE', #364, #77, #200 ) ;
#121 = CONICAL_SURFACE ( 'NONE', #84, 0.9699999999999999734, 1.047197551196603182 ) ;
#122 = DIRECTION ( 'NONE',  ( -3.491481338843133355E-15, 0.000000000000000000, -1.000000000000000000 ) ) ;
#123 = DIRECTION ( 'NONE',  ( -1.000000000000000000, 0.000000000000000000, 3.491481338843133355E-15 ) ) ;
#124 = ADVANCED_FACE ( 'NONE', ( #174, #107 ), #207, .T. ) ;
#125 = APPROVAL_PERSON_ORGANIZATION ( #170, #243, #106 ) ;
#126 = EDGE_CURVE ( 'NONE', #206, #206, #388, .T. ) ;
#127 = EDGE_LOOP ( 'NONE', ( #220 ) ) ;
#128 = PERSON_AND_ORGANIZATION ( #287, #316 ) ;
#129 = ORIENTED_EDGE ( 'NONE', *, *, #162, .T. ) ;
#130 = AXIS2_PLACEMENT_3D ( 'NONE', #305, #140, #52 ) ;
#131 = DESIGN_CONTEXT ( 'detailed design', #188, 'design' ) ;
#132 = LOCAL_TIME ( 10, 31, 46.00000000000000000, #358 ) ;
#133 = CALENDAR_DATE ( 2023, 27, 9 ) ;
#134 = EDGE_LOOP ( 'NONE', ( #348 ) ) ;
#135 = CARTESIAN_POINT ( 'NONE',  ( 1.326762908760390423E-13, 0.000000000000000000, 38.00000000000000000 ) ) ;
#136 = PERSON_AND_ORGANIZATION_ROLE ( 'design_supplier' ) ;
#137 = EDGE_LOOP ( 'NONE', ( #10 ) ) ;
#138 = FACE_BOUND ( 'NONE', #288, .T. ) ;
#139 = PERSON_AND_ORGANIZATION_ROLE ( 'classification_officer' ) ;
#140 = DIRECTION ( 'NONE',  ( 3.491481338843133355E-15, -0.000000000000000000, 1.000000000000000000 ) ) ;
#141 = LOCAL_TIME ( 10, 31, 46.00000000000000000, #222 ) ;
#142 = CARTESIAN_POINT ( 'NONE',  ( 0.9700000000000009726, 0.000000000000000000, 0.2916666666666658525 ) ) ;
#143 = CARTESIAN_POINT ( 'NONE',  ( 2.478951750578624051E-14, 0.000000000000000000, 7.099999999999998757 ) ) ;
#144 = CARTESIAN_POINT ( 'NONE',  ( 2.569317937189887580E-14, 0.000000000000000000, 7.358819045102514167 ) ) ;
#145 = DIRECTION ( 'NONE',  ( 3.491481338843133355E-15, -0.000000000000000000, 1.000000000000000000 ) ) ;
#146 = DIRECTION ( 'NONE',  ( 3.491481338843133355E-15, -0.000000000000000000, 1.000000000000000000 ) ) ;
#147 = CARTESIAN_POINT ( 'NONE',  ( 7.855833012397154573E-16, 0.000000000000000000, 0.2250000000000029754 ) ) ;
#148 = EDGE_CURVE ( 'NONE', #175, #175, #182, .T. ) ;
#149 = DIRECTION ( 'NONE',  ( 3.491481338843133355E-15, -0.000000000000000000, 1.000000000000000000 ) ) ;
#150 = EDGE_CURVE ( 'NONE', #20, #20, #280, .T. ) ;
#151 = AXIS2_PLACEMENT_3D ( 'NONE', #307, #47, #75 ) ;
#152 = EDGE_CURVE ( 'NONE', #164, #164, #11, .T. ) ;
#153 = FACE_BOUND ( 'NONE', #221, .T. ) ;
#154 = CYLINDRICAL_SURFACE ( 'NONE', #117, 0.8149999999999995026 ) ;
#155 = ADVANCED_FACE ( 'NONE', ( #82, #272 ), #53, .T. ) ;
#156 = ADVANCED_FACE ( 'NONE', ( #361, #79 ), #97, .F. ) ;
#157 = EDGE_LOOP ( 'NONE', ( #378 ) ) ;
#158 = ORIENTED_EDGE ( 'NONE', *, *, #104, .T. ) ;
#159 = APPROVAL_STATUS ( 'not_yet_approved' ) ;
#160 = EDGE_LOOP ( 'NONE', ( #66 ) ) ;
#161 = FACE_OUTER_BOUND ( 'NONE', #100, .T. ) ;
#162 = EDGE_CURVE ( 'NONE', #201, #201, #341, .T. ) ;
#163 = ORIENTED_EDGE ( 'NONE', *, *, #12, .F. ) ;
#164 = VERTEX_POINT ( 'NONE', #76 ) ;
#165 = APPLICATION_PROTOCOL_DEFINITION ( 'international standard', 'config_control_design', 1994, #188 ) ;
#166 = EDGE_LOOP ( 'NONE', ( #371 ) ) ;
#167 = CYLINDRICAL_SURFACE ( 'NONE', #32, 1.499999999999998224 ) ;
#168 = DIRECTION ( 'NONE',  ( 1.000000000000000000, 0.000000000000000000, -3.192742593822348026E-15 ) ) ;
#169 = FACE_OUTER_BOUND ( 'NONE', #137, .T. ) ;
#170 = PERSON_AND_ORGANIZATION ( #287, #316 ) ;
#171 = CARTESIAN_POINT ( 'NONE',  ( 1.076540079476635283E-15, 0.000000000000000000, 0.3083333333333340698 ) ) ;
#172 = ADVANCED_FACE ( 'NONE', ( #389, #112 ), #88, .T. ) ;
#173 = CARTESIAN_POINT ( 'NONE',  ( 0.8545299461620754489, 0.000000000000000000, 0.3999999999999945821 ) ) ;
#174 = FACE_OUTER_BOUND ( 'NONE', #187, .T. ) ;
#175 = VERTEX_POINT ( 'NONE', #25 ) ;
#176 = CARTESIAN_POINT ( 'NONE',  ( 2.478951750578624367E-14, 0.000000000000000000, 7.099999999999999645 ) ) ;
#177 = AXIS2_PLACEMENT_3D ( 'NONE', #5, #1, #339 ) ;
#178 = CIRCLE ( 'NONE', #245, 0.8112286759728523089 ) ;
#179 = DIRECTION ( 'NONE',  ( 1.000000000000000000, 0.000000000000000000, -3.489118184478044380E-15 ) ) ;
#180 = CARTESIAN_POINT ( 'NONE',  ( 1.396592535537253539E-15, 0.8545299461620741166, 0.4000000000000000777 ) ) ;
#181 = CC_DESIGN_PERSON_AND_ORGANIZATION_ASSIGNMENT ( #298, #229, ( #68 ) ) ;
#182 = CIRCLE ( 'NONE', #257, 1.199999999999993516 ) ;
#183 = DIRECTION ( 'NONE',  ( 3.491481338843133355E-15, -0.000000000000000000, 1.000000000000000000 ) ) ;
#184 = CARTESIAN_POINT ( 'NONE',  ( 1.309305502066176192E-15, 0.000000000000000000, 0.3750000000000003331 ) ) ;
#185 = ORIENTED_EDGE ( 'NONE', *, *, #2, .F. ) ;
#186 = CC_DESIGN_SECURITY_CLASSIFICATION ( #286, ( #309 ) ) ;
#187 = EDGE_LOOP ( 'NONE', ( #163 ) ) ;
#188 = APPLICATION_CONTEXT ( 'configuration controlled 3d designs of mechanical parts and assemblies' ) ;
#189 = APPROVAL_DATE_TIME ( #191, #369 ) ;
#190 = EDGE_LOOP ( 'NONE', ( #158 ) ) ;
#191 = DATE_AND_TIME ( #67, #141 ) ;
#192 = EDGE_LOOP ( 'NONE', ( #375 ) ) ;
#193 = CARTESIAN_POINT ( 'NONE',  ( 0.8545299461620753378, 0.000000000000000000, 0.3749999999999973355 ) ) ;
#194 = DATE_AND_TIME ( #15, #86 ) ;
#195 = ORIENTED_EDGE ( 'NONE', *, *, #119, .F. ) ;
#196 = UNCERTAINTY_MEASURE_WITH_UNIT (LENGTH_MEASURE( 1.000000000000000082E-05 ), #199, 'distance_accuracy_value', 'NONE');
#197 = VERTEX_POINT ( 'NONE', #350 ) ;
#198 = PERSON_AND_ORGANIZATION ( #287, #316 ) ;
#199 =( LENGTH_UNIT ( ) NAMED_UNIT ( * ) SI_UNIT ( .MILLI., .METRE. ) );
#200 = DIRECTION ( 'NONE',  ( 1.000000000000000000, 0.000000000000000000, -3.469446951953614189E-15 ) ) ;
#201 = VERTEX_POINT ( 'NONE', #101 ) ;
#202 = DIRECTION ( 'NONE',  ( 0.000000000000000000, 0.000000000000000000, 1.000000000000000000 ) ) ;
#203 = DIRECTION ( 'NONE',  ( -1.000000000000000000, 0.000000000000000000, 3.492919370120826356E-15 ) ) ;
#204 = DIRECTION ( 'NONE',  ( 3.491481338843133355E-15, -0.000000000000000000, 1.000000000000000000 ) ) ;
#205 = AXIS2_PLACEMENT_3D ( 'NONE', #18, #242, #328 ) ;
#206 = VERTEX_POINT ( 'NONE', #335 ) ;
#207 = CYLINDRICAL_SURFACE ( 'NONE', #285, 0.8545299461620741166 ) ;
#208 = EDGE_CURVE ( 'NONE', #329, #329, #42, .T. ) ;
#209 = DIRECTION ( 'NONE',  ( 3.491481338843133355E-15, -0.000000000000000000, 1.000000000000000000 ) ) ;
#210 = CC_DESIGN_PERSON_AND_ORGANIZATION_ASSIGNMENT ( #198, #139, ( #286 ) ) ;
#211 = DIRECTION ( 'NONE',  ( 3.491481338843133355E-15, -0.000000000000000000, 1.000000000000000000 ) ) ;
#212 = AXIS2_PLACEMENT_3D ( 'NONE', #171, #145, #268 ) ;
#213 = DIRECTION ( 'NONE',  ( 1.000000000000000000, 0.000000000000000000, -3.464976015159859584E-15 ) ) ;
#214 = ADVANCED_FACE ( 'NONE', ( #337 ), #4, .F. ) ;
#215 = DIRECTION ( 'NONE',  ( 1.000000000000000000, 0.000000000000000000, 0.000000000000000000 ) ) ;
#216 = CARTESIAN_POINT ( 'NONE',  ( 1.326762908760390423E-13, 0.000000000000000000, 38.00000000000000000 ) ) ;
#217 = AXIS2_PLACEMENT_3D ( 'NONE', #85, #281, #31 ) ;
#218 = CONICAL_SURFACE ( 'NONE', #29, 0.8490741737109288589, 0.2617993877991429685 ) ;
#219 = EDGE_CURVE ( 'NONE', #197, #197, #269, .T. ) ;
#220 = ORIENTED_EDGE ( 'NONE', *, *, #152, .T. ) ;
#221 = EDGE_LOOP ( 'NONE', ( #129 ) ) ;
#222 = COORDINATED_UNIVERSAL_TIME_OFFSET ( 1, 0, .AHEAD. ) ;
#223 = AXIS2_PLACEMENT_3D ( 'NONE', #116, #204, #118 ) ;
#224 = ADVANCED_FACE ( 'NONE', ( #244, #248 ), #83, .T. ) ;
#225 = ORIENTED_EDGE ( 'NONE', *, *, #150, .T. ) ;
#226 = DATE_TIME_ROLE ( 'classification_date' ) ;
#227 = ADVANCED_FACE ( 'NONE', ( #340, #58 ), #234, .T. ) ;
#228 = CARTESIAN_POINT ( 'NONE',  ( 0.8545299461620746717, 0.000000000000000000, 0.1749999999999985734 ) ) ;
#229 = PERSON_AND_ORGANIZATION_ROLE ( 'creator' ) ;
#230 = ORIENTED_EDGE ( 'NONE', *, *, #119, .T. ) ;
#231 = VERTEX_POINT ( 'NONE', #80 ) ;
#232 = APPROVAL_DATE_TIME ( #291, #243 ) ;
#233 = DIRECTION ( 'NONE',  ( 3.491481338843133355E-15, -0.000000000000000000, 1.000000000000000000 ) ) ;
#234 = CONICAL_SURFACE ( 'NONE', #54, 1.499999999999996447, 0.7853981633974501664 ) ;
#235 = CC_DESIGN_APPROVAL ( #243, ( #309 ) ) ;
#236 = FACE_BOUND ( 'NONE', #64, .T. ) ;
#237 = CALENDAR_DATE ( 2023, 27, 9 ) ;
#238 = DIRECTION ( 'NONE',  ( 3.491481338843133355E-15, -0.000000000000000000, 1.000000000000000000 ) ) ;
#239 = CARTESIAN_POINT ( 'NONE',  ( 1.396592535537244862E-15, 0.000000000000000000, 0.3999999999999975797 ) ) ;
#240 = DIRECTION ( 'NONE',  ( 3.491481338843133355E-15, -0.000000000000000000, 1.000000000000000000 ) ) ;
#241 = DIRECTION ( 'NONE',  ( 3.491481338843133355E-15, -0.000000000000000000, 1.000000000000000000 ) ) ;
#242 = DIRECTION ( 'NONE',  ( 3.491481338843133355E-15, -0.000000000000000000, 1.000000000000000000 ) ) ;
#243 = APPROVAL ( #323, 'UNSPECIFIED' ) ;
#244 = FACE_OUTER_BOUND ( 'NONE', #192, .T. ) ;
#245 = AXIS2_PLACEMENT_3D ( 'NONE', #115, #240, #362 ) ;
#246 = EDGE_CURVE ( 'NONE', #71, #71, #21, .T. ) ;
#247 = CARTESIAN_POINT ( 'NONE',  ( 1.326762908760390423E-13, 0.000000000000000000, 38.00000000000000000 ) ) ;
#248 = FACE_OUTER_BOUND ( 'NONE', #294, .T. ) ;
#249 = CARTESIAN_POINT ( 'NONE',  ( 1.326762908760390423E-13, 1.199999999999993516, 38.00000000000000000 ) ) ;
#250 = CC_DESIGN_APPROVAL ( #314, ( #68 ) ) ;
#251 = EDGE_LOOP ( 'NONE', ( #225 ) ) ;
#252 = PRODUCT_RELATED_PRODUCT_CATEGORY ( 'detail', '', ( #383 ) ) ;
#253 = EDGE_LOOP ( 'NONE', ( #195 ) ) ;
#254 = APPLICATION_PROTOCOL_DEFINITION ( 'international standard', 'config_control_design', 1994, #34 ) ;
#255 = EDGE_LOOP ( 'NONE', ( #321 ) ) ;
#256 =( NAMED_UNIT ( * ) PLANE_ANGLE_UNIT ( ) SI_UNIT ( $, .RADIAN. ) );
#257 = AXIS2_PLACEMENT_3D ( 'NONE', #26, #233, #385 ) ;
#258 = APPROVAL_PERSON_ORGANIZATION ( #380, #314, #102 ) ;
#259 = PERSON_AND_ORGANIZATION ( #287, #316 ) ;
#260 = EDGE_LOOP ( 'NONE', ( #289 ) ) ;
#261 = DIRECTION ( 'NONE',  ( -1.000000000000000000, 0.000000000000000000, 3.464976015159859584E-15 ) ) ;
#262 = FACE_OUTER_BOUND ( 'NONE', #255, .T. ) ;
#263 = ADVANCED_FACE ( 'NONE', ( #30, #57 ), #313, .F. ) ;
#264 = CARTESIAN_POINT ( 'NONE',  ( 0.8150000000000013900, 0.000000000000000000, 0.3999999999999947486 ) ) ;
#265 = CALENDAR_DATE ( 2023, 27, 9 ) ;
#266 = CLOSED_SHELL ( 'NONE', ( #63, #303, #155, #386, #224, #284, #172, #334, #124, #263, #312, #156, #349, #372, #227, #214 ) ) ;
#267 = AXIS2_PLACEMENT_3D ( 'NONE', #180, #33, #62 ) ;
#268 = DIRECTION ( 'NONE',  ( 1.000000000000000000, 0.000000000000000000, -3.464976015159859584E-15 ) ) ;
#269 = CIRCLE ( 'NONE', #177, 0.9699999999999999734 ) ;
#270 = ADVANCED_BREP_SHAPE_REPRESENTATION ( '961185', ( #283, #276 ), #7 ) ;
#271 = DIRECTION ( 'NONE',  ( 3.491481338843133355E-15, -0.000000000000000000, 1.000000000000000000 ) ) ;
#272 = FACE_OUTER_BOUND ( 'NONE', #346, .T. ) ;
#273 = DIRECTION ( 'NONE',  ( 1.000000000000000000, 0.000000000000000000, -3.064614723343478334E-15 ) ) ;
#274 = ORIENTED_EDGE ( 'NONE', *, *, #94, .T. ) ;
#275 = DIRECTION ( 'NONE',  ( 1.000000000000000000, 0.000000000000000000, -3.458804476640873380E-15 ) ) ;
#276 = AXIS2_PLACEMENT_3D ( 'NONE', #352, #202, #13 ) ;
#277 = CARTESIAN_POINT ( 'NONE',  ( 0.000000000000000000, 0.000000000000000000, 0.000000000000000000 ) ) ;
#278 = DIRECTION ( 'NONE',  ( 1.000000000000000000, 0.000000000000000000, -3.491481338843133355E-15 ) ) ;
#279 = DIRECTION ( 'NONE',  ( 3.491481338843133355E-15, -0.000000000000000000, 1.000000000000000000 ) ) ;
#280 = CIRCLE ( 'NONE', #120, 1.500000000000000000 ) ;
#281 = DIRECTION ( 'NONE',  ( 3.491481338843133355E-15, -0.000000000000000000, 1.000000000000000000 ) ) ;
#282 = FACE_OUTER_BOUND ( 'NONE', #160, .T. ) ;
#283 = MANIFOLD_SOLID_BREP ( 'Corps-Déplacer/Copier1', #266 ) ;
#284 = ADVANCED_FACE ( 'NONE', ( #28, #153 ), #60, .T. ) ;
#285 = AXIS2_PLACEMENT_3D ( 'NONE', #24, #241, #363 ) ;
#286 = SECURITY_CLASSIFICATION ( '', '', #301 ) ;
#287 = PERSON ( 'UNSPECIFIED', 'UNSPECIFIED', 'UNSPECIFIED', ('UNSPECIFIED'), ('UNSPECIFIED'), ('UNSPECIFIED') ) ;
#288 = EDGE_LOOP ( 'NONE', ( #274 ) ) ;
#289 = ORIENTED_EDGE ( 'NONE', *, *, #2, .T. ) ;
#290 = EDGE_LOOP ( 'NONE', ( #69 ) ) ;
#291 = DATE_AND_TIME ( #265, #56 ) ;
#292 = CIRCLE ( 'NONE', #205, 0.8490741737109288589 ) ;
#293 = AXIS2_PLACEMENT_3D ( 'NONE', #277, #149, #278 ) ;
#294 = EDGE_LOOP ( 'NONE', ( #92 ) ) ;
#295 = CARTESIAN_POINT ( 'NONE',  ( 0.8112286759728523089, 0.000000000000000000, -2.832389783693636776E-15 ) ) ;
#296 = PERSON_AND_ORGANIZATION_ROLE ( 'design_owner' ) ;
#297 = ORIENTED_EDGE ( 'NONE', *, *, #150, .F. ) ;
#298 = PERSON_AND_ORGANIZATION ( #287, #316 ) ;
#299 = DIRECTION ( 'NONE',  ( 3.491481338843133355E-15, -0.000000000000000000, 1.000000000000000000 ) ) ;
#300 = CARTESIAN_POINT ( 'NONE',  ( 0.8150000000000239275, 0.000000000000000000, 7.099999999999996092 ) ) ;
#301 = SECURITY_CLASSIFICATION_LEVEL ( 'unclassified' ) ;
#302 = CARTESIAN_POINT ( 'NONE',  ( 7.855833012397154573E-16, 0.000000000000000000, 0.2250000000000029754 ) ) ;
#303 = ADVANCED_FACE ( 'NONE', ( #282, #90 ), #74, .T. ) ;
#304 = FACE_OUTER_BOUND ( 'NONE', #315, .T. ) ;
#305 = CARTESIAN_POINT ( 'NONE',  ( 3.200524560606095299E-16, 0.000000000000000000, 0.09166666666666350993 ) ) ;
#306 = CARTESIAN_POINT ( 'NONE',  ( 1.500000000000034195, 0.000000000000000000, 9.788107300772137975 ) ) ;
#307 = CARTESIAN_POINT ( 'NONE',  ( 4.434213970474738276E-33, 0.000000000000000000, 1.270009357101123571E-18 ) ) ;
#308 = DIRECTION ( 'NONE',  ( 1.000000000000000000, 0.000000000000000000, -3.491481338843133355E-15 ) ) ;
#309 = PRODUCT_DEFINITION_FORMATION_WITH_SPECIFIED_SOURCE ( 'ANY', '', #383, .NOT_KNOWN. ) ;
#310 = DIRECTION ( 'NONE',  ( -1.000000000000000000, 0.000000000000000000, 4.625929269271496366E-15 ) ) ;
#311 = CIRCLE ( 'NONE', #223, 1.499999999999996447 ) ;
#312 = ADVANCED_FACE ( 'NONE', ( #161, #89 ), #154, .T. ) ;
#313 = PLANE ( 'NONE',  #267 ) ;
#314 = APPROVAL ( #38, 'UNSPECIFIED' ) ;
#315 = EDGE_LOOP ( 'NONE', ( #297 ) ) ;
#316 = ORGANIZATION ( 'UNSPECIFIED', 'UNSPECIFIED', '' ) ;
#317 = CONICAL_SURFACE ( 'NONE', #376, 0.9699999999999999734, 1.047197551196603182 ) ;
#318 = EDGE_CURVE ( 'NONE', #44, #44, #98, .T. ) ;
#319 = ORIENTED_EDGE ( 'NONE', *, *, #94, .F. ) ;
#320 = SHAPE_DEFINITION_REPRESENTATION ( #351, #270 ) ;
#321 = ORIENTED_EDGE ( 'NONE', *, *, #381, .F. ) ;
#322 = VERTEX_POINT ( 'NONE', #295 ) ;
#323 = APPROVAL_STATUS ( 'not_yet_approved' ) ;
#324 = AXIS2_PLACEMENT_3D ( 'NONE', #50, #146, #275 ) ;
#325 = EDGE_LOOP ( 'NONE', ( #41 ) ) ;
#326 = VERTEX_POINT ( 'NONE', #264 ) ;
#327 = CC_DESIGN_DATE_AND_TIME_ASSIGNMENT ( #194, #374, ( #68 ) ) ;
#328 = DIRECTION ( 'NONE',  ( 1.000000000000000000, 0.000000000000000000, -3.064614723343478334E-15 ) ) ;
#329 = VERTEX_POINT ( 'NONE', #228 ) ;
#330 = DATE_AND_TIME ( #237, #110 ) ;
#331 = EDGE_LOOP ( 'NONE', ( #35 ) ) ;
#332 = CARTESIAN_POINT ( 'NONE',  ( 3.782438117080129010E-16, 0.000000000000000000, 0.1083333333333352799 ) ) ;
#333 = DIRECTION ( 'NONE',  ( 3.491481338843133355E-15, -0.000000000000000000, 1.000000000000000000 ) ) ;
#334 = ADVANCED_FACE ( 'NONE', ( #391, #109 ), #317, .T. ) ;
#335 = CARTESIAN_POINT ( 'NONE',  ( 0.9700000000000003064, 0.000000000000000000, 0.09166666666666012375 ) ) ;
#336 = DIRECTION ( 'NONE',  ( 3.491481338843133355E-15, -0.000000000000000000, 1.000000000000000000 ) ) ;
#337 = FACE_OUTER_BOUND ( 'NONE', #373, .T. ) ;
#338 = APPROVAL_PERSON_ORGANIZATION ( #259, #369, #95 ) ;
#339 = DIRECTION ( 'NONE',  ( 1.000000000000000000, 0.000000000000000000, -3.492919370120826356E-15 ) ) ;
#340 = FACE_BOUND ( 'NONE', #157, .T. ) ;
#341 = CIRCLE ( 'NONE', #356, 0.8545299461620741166 ) ;
#342 = AXIS2_PLACEMENT_3D ( 'NONE', #184, #238, #23 ) ;
#343 = DIRECTION ( 'NONE',  ( 3.491481338843133355E-15, -0.000000000000000000, 1.000000000000000000 ) ) ;
#344 = DIRECTION ( 'NONE',  ( 1.000000000000000000, 0.000000000000000000, -3.489118184478044380E-15 ) ) ;
#345 = EDGE_LOOP ( 'NONE', ( #9 ) ) ;
#346 = EDGE_LOOP ( 'NONE', ( #14 ) ) ;
#347 = PERSON_AND_ORGANIZATION_ROLE ( 'creator' ) ;
#348 = ORIENTED_EDGE ( 'NONE', *, *, #318, .F. ) ;
#349 = ADVANCED_FACE ( 'NONE', ( #304, #138 ), #218, .T. ) ;
#350 = CARTESIAN_POINT ( 'NONE',  ( 0.9700000000000003064, 0.000000000000000000, 0.1083333333333318937 ) ) ;
#351 = PRODUCT_DEFINITION_SHAPE ( 'NONE', 'NONE',  #68 ) ;
#352 = CARTESIAN_POINT ( 'NONE',  ( 0.000000000000000000, 0.000000000000000000, 0.000000000000000000 ) ) ;
#353 = EDGE_LOOP ( 'NONE', ( #70 ) ) ;
#354 = CC_DESIGN_PERSON_AND_ORGANIZATION_ASSIGNMENT ( #128, #136, ( #309 ) ) ;
#355 = PERSON_AND_ORGANIZATION ( #287, #316 ) ;
#356 = AXIS2_PLACEMENT_3D ( 'NONE', #302, #299, #22 ) ;
#357 = DIRECTION ( 'NONE',  ( -3.491481338843133355E-15, 0.000000000000000000, -1.000000000000000000 ) ) ;
#358 = COORDINATED_UNIVERSAL_TIME_OFFSET ( 1, 0, .AHEAD. ) ;
#359 = DIRECTION ( 'NONE',  ( 1.000000000000000000, 0.000000000000000000, 0.000000000000000000 ) ) ;
#360 = DIRECTION ( 'NONE',  ( 3.491481338843133355E-15, -0.000000000000000000, 1.000000000000000000 ) ) ;
#361 = FACE_OUTER_BOUND ( 'NONE', #16, .T. ) ;
#362 = DIRECTION ( 'NONE',  ( 1.000000000000000000, 0.000000000000000000, -3.491481338843133355E-15 ) ) ;
#363 = DIRECTION ( 'NONE',  ( 1.000000000000000000, 0.000000000000000000, 0.000000000000000000 ) ) ;
#364 = CARTESIAN_POINT ( 'NONE',  ( 3.417499398324016853E-14, 0.000000000000000000, 9.788107300772143304 ) ) ;
#365 = CIRCLE ( 'NONE', #3, 0.8149999999999990585 ) ;
#366 = DIRECTION ( 'NONE',  ( 3.491481338843133355E-15, -0.000000000000000000, 1.000000000000000000 ) ) ;
#367 = CC_DESIGN_APPROVAL ( #369, ( #286 ) ) ;
#368 = CARTESIAN_POINT ( 'NONE',  ( 1.316288464743861212E-13, 0.000000000000000000, 37.69999999999999574 ) ) ;
#369 = APPROVAL ( #159, 'UNSPECIFIED' ) ;
#370 = CARTESIAN_POINT ( 'NONE',  ( 6.110092342975536620E-16, 0.000000000000000000, 0.1750000000000015432 ) ) ;
#371 = ORIENTED_EDGE ( 'NONE', *, *, #12, .T. ) ;
#372 = ADVANCED_FACE ( 'NONE', ( #51, #17 ), #167, .T. ) ;
#373 = EDGE_LOOP ( 'NONE', ( #8 ) ) ;
#374 = DATE_TIME_ROLE ( 'creation_date' ) ;
#375 = ORIENTED_EDGE ( 'NONE', *, *, #162, .F. ) ;
#376 = AXIS2_PLACEMENT_3D ( 'NONE', #113, #78, #261 ) ;
#377 =( NAMED_UNIT ( * ) SI_UNIT ( $, .STERADIAN. ) SOLID_ANGLE_UNIT ( ) );
#378 = ORIENTED_EDGE ( 'NONE', *, *, #148, .F. ) ;
#379 = VERTEX_POINT ( 'NONE', #300 ) ;
#380 = PERSON_AND_ORGANIZATION ( #287, #316 ) ;
#381 = EDGE_CURVE ( 'NONE', #322, #322, #178, .T. ) ;
#382 = VERTEX_POINT ( 'NONE', #105 ) ;
#383 = PRODUCT ( '961185', '961185', '', ( #45 ) ) ;
#384 = APPROVAL_DATE_TIME ( #99, #314 ) ;
#385 = DIRECTION ( 'NONE',  ( 1.000000000000000000, 0.000000000000000000, -5.782411586589388010E-15 ) ) ;
#386 = ADVANCED_FACE ( 'NONE', ( #236, #169 ), #121, .T. ) ;
#387 = COORDINATED_UNIVERSAL_TIME_OFFSET ( 1, 0, .AHEAD. ) ;
#388 = CIRCLE ( 'NONE', #130, 0.9699999999999999734 ) ;
#389 = FACE_OUTER_BOUND ( 'NONE', #353, .T. ) ;
#390 = CARTESIAN_POINT ( 'NONE',  ( 1.326762908760390423E-13, 0.000000000000000000, 38.00000000000000000 ) ) ;
#391 = FACE_BOUND ( 'NONE', #134, .T. ) ;
#392 = DIRECTION ( 'NONE',  ( 3.491481338843133355E-15, -0.000000000000000000, 1.000000000000000000 ) ) ;
#393 = DIRECTION ( 'NONE',  ( 1.000000000000000000, 0.000000000000000000, -3.489118184478044380E-15 ) ) ;
#394 = AXIS2_PLACEMENT_3D ( 'NONE', #147, #366, #344 ) ;
#395 = CC_DESIGN_DATE_AND_TIME_ASSIGNMENT ( #330, #226, ( #286 ) ) ;
ENDSEC;
END-ISO-10303-21;
