ISO-10303-21;
HEADER;
FILE_DESCRIPTION (( 'STEP AP203' ),
    '1' );
FILE_NAME ('961184.step',
    '2023-09-27T08:31:45',
    ( '' ),
    ( '' ),
    'SwSTEP 2.0',
    'SolidWorks 2022',
    '' );
FILE_SCHEMA (( 'CONFIG_CONTROL_DESIGN' ));
ENDSEC;

DATA;
#1 = PERSON_AND_ORGANIZATION_ROLE ( 'creator' ) ;
#2 = CIRCLE ( 'NONE', #79, 0.5340598923241484108 ) ;
#3 = APPROVAL_ROLE ( '' ) ;
#4 = AXIS2_PLACEMENT_3D ( 'NONE', #344, #136, #375 ) ;
#5 = DIRECTION ( 'NONE',  ( 1.000000000000000000, 0.000000000000000000, -3.441405186871599441E-15 ) ) ;
#6 = FACE_OUTER_BOUND ( 'NONE', #256, .T. ) ;
#7 = CARTESIAN_POINT ( 'NONE',  ( 1.326762908760390423E-13, 0.000000000000000000, 38.00000000000000000 ) ) ;
#8 = ADVANCED_FACE ( 'NONE', ( #156, #240 ), #246, .T. ) ;
#9 = DIRECTION ( 'NONE',  ( 3.491481338843133355E-15, -0.000000000000000000, 1.000000000000000000 ) ) ;
#10 = CYLINDRICAL_SURFACE ( 'NONE', #37, 0.4699999999999995848 ) ;
#11 = CC_DESIGN_PERSON_AND_ORGANIZATION_ASSIGNMENT ( #270, #154, ( #388 ) ) ;
#12 = APPLICATION_CONTEXT ( 'configuration controlled 3d designs of mechanical parts and assemblies' ) ;
#13 = ADVANCED_FACE ( 'NONE', ( #266, #241 ), #92, .F. ) ;
#14 = CARTESIAN_POINT ( 'NONE',  ( 0.4474573519457045179, 0.000000000000000000, -1.562288994246591662E-15 ) ) ;
#15 = EDGE_LOOP ( 'NONE', ( #295 ) ) ;
#16 = CARTESIAN_POINT ( 'NONE',  ( 1.326762908760390423E-13, 0.000000000000000000, 38.00000000000000000 ) ) ;
#17 = CIRCLE ( 'NONE', #281, 0.5340598923241484108 ) ;
#18 = ORIENTED_EDGE ( 'NONE', *, *, #360, .F. ) ;
#19 = ORIENTED_EDGE ( 'NONE', *, *, #283, .T. ) ;
#20 = DATE_AND_TIME ( #351, #127 ) ;
#21 = DIRECTION ( 'NONE',  ( 1.000000000000000000, 0.000000000000000000, 0.000000000000000000 ) ) ;
#22 = EDGE_LOOP ( 'NONE', ( #236 ) ) ;
#23 = UNCERTAINTY_MEASURE_WITH_UNIT (LENGTH_MEASURE( 1.000000000000000082E-05 ), #194, 'distance_accuracy_value', 'NONE');
#24 = FACE_OUTER_BOUND ( 'NONE', #22, .T. ) ;
#25 = AXIS2_PLACEMENT_3D ( 'NONE', #7, #218, #339 ) ;
#26 = AXIS2_PLACEMENT_3D ( 'NONE', #267, #391, #109 ) ;
#27 = PERSON_AND_ORGANIZATION ( #222, #220 ) ;
#28 = DIRECTION ( 'NONE',  ( 3.491481338843133355E-15, -0.000000000000000000, 1.000000000000000000 ) ) ;
#29 = ADVANCED_FACE ( 'NONE', ( #98 ), #207, .F. ) ;
#30 = PERSON_AND_ORGANIZATION_ROLE ( 'classification_officer' ) ;
#31 = CARTESIAN_POINT ( 'NONE',  ( 1.316288464743861212E-13, 0.000000000000000000, 37.69999999999999574 ) ) ;
#32 = EDGE_CURVE ( 'NONE', #386, #386, #2, .T. ) ;
#33 = CIRCLE ( 'NONE', #25, 1.199999999999993516 ) ;
#34 = AXIS2_PLACEMENT_3D ( 'NONE', #80, #145, #197 ) ;
#35 = ORIENTED_EDGE ( 'NONE', *, *, #343, .F. ) ;
#36 = APPROVAL ( #120, 'UNSPECIFIED' ) ;
#37 = AXIS2_PLACEMENT_3D ( 'NONE', #135, #311, #254 ) ;
#38 = DIRECTION ( 'NONE',  ( 3.491481338843133355E-15, -0.000000000000000000, 1.000000000000000000 ) ) ;
#39 = DIRECTION ( 'NONE',  ( -1.000000000000000000, 0.000000000000000000, 4.625929269271496366E-15 ) ) ;
#40 = ORIENTED_EDGE ( 'NONE', *, *, #308, .T. ) ;
#41 = CARTESIAN_POINT ( 'NONE',  ( 0.000000000000000000, 0.000000000000000000, 0.000000000000000000 ) ) ;
#42 = CC_DESIGN_PERSON_AND_ORGANIZATION_ASSIGNMENT ( #211, #1, ( #153 ) ) ;
#43 = LOCAL_TIME ( 10, 31, 45.00000000000000000, #89 ) ;
#44 = DIRECTION ( 'NONE',  ( 1.000000000000000000, 0.000000000000000000, -3.460219699421823039E-15 ) ) ;
#45 = EDGE_LOOP ( 'NONE', ( #323 ) ) ;
#46 = VERTEX_POINT ( 'NONE', #350 ) ;
#47 = CYLINDRICAL_SURFACE ( 'NONE', #389, 0.5340598923241482998 ) ;
#48 = LOCAL_TIME ( 10, 31, 45.00000000000000000, #334 ) ;
#49 = EDGE_LOOP ( 'NONE', ( #297 ) ) ;
#50 = CARTESIAN_POINT ( 'NONE',  ( 0.7650000000000022338, 0.000000000000000000, 0.6166666666666654750 ) ) ;
#51 = FACE_OUTER_BOUND ( 'NONE', #122, .T. ) ;
#52 = EDGE_LOOP ( 'NONE', ( #312 ) ) ;
#53 =( NAMED_UNIT ( * ) SI_UNIT ( $, .STERADIAN. ) SOLID_ANGLE_UNIT ( ) );
#54 = FACE_BOUND ( 'NONE', #15, .T. ) ;
#55 = FACE_BOUND ( 'NONE', #176, .T. ) ;
#56 = CC_DESIGN_APPROVAL ( #353, ( #153 ) ) ;
#57 = EDGE_CURVE ( 'NONE', #321, #321, #310, .T. ) ;
#58 = DIRECTION ( 'NONE',  ( 3.491481338843133355E-15, -0.000000000000000000, 1.000000000000000000 ) ) ;
#59 = ADVANCED_BREP_SHAPE_REPRESENTATION ( '961184', ( #284, #26 ), #265 ) ;
#60 = CALENDAR_DATE ( 2023, 27, 9 ) ;
#61 = DIRECTION ( 'NONE',  ( 1.000000000000000000, 0.000000000000000000, -3.451192871279423381E-15 ) ) ;
#62 = CONICAL_SURFACE ( 'NONE', #71, 1.499999999999996447, 0.7853981633974501664 ) ;
#63 = DATE_TIME_ROLE ( 'classification_date' ) ;
#64 = CARTESIAN_POINT ( 'NONE',  ( 2.153080158953270565E-15, 0.000000000000000000, 0.6166666666666681396 ) ) ;
#65 = AXIS2_PLACEMENT_3D ( 'NONE', #143, #177, #146 ) ;
#66 = DIRECTION ( 'NONE',  ( -1.000000000000000000, 0.000000000000000000, 3.491481338843133355E-15 ) ) ;
#67 = FACE_OUTER_BOUND ( 'NONE', #381, .T. ) ;
#68 = CIRCLE ( 'NONE', #34, 0.5340598923241482998 ) ;
#69 = EDGE_LOOP ( 'NONE', ( #19 ) ) ;
#70 = CARTESIAN_POINT ( 'NONE',  ( 2.324914243470868561E-14, 0.000000000000000000, 6.658819045102514877 ) ) ;
#71 = AXIS2_PLACEMENT_3D ( 'NONE', #31, #393, #39 ) ;
#72 = DIRECTION ( 'NONE',  ( 1.000000000000000000, 0.000000000000000000, -3.451192871279423381E-15 ) ) ;
#73 = ORIENTED_EDGE ( 'NONE', *, *, #186, .T. ) ;
#74 = VERTEX_POINT ( 'NONE', #14 ) ;
#75 = ORIENTED_EDGE ( 'NONE', *, *, #167, .T. ) ;
#76 = CARTESIAN_POINT ( 'NONE',  ( 0.5340598923241499651, 0.000000000000000000, 0.4499999999999971800 ) ) ;
#77 = DIRECTION ( 'NONE',  ( 1.000000000000000000, 0.000000000000000000, -4.625929269271496366E-15 ) ) ;
#78 = ORIENTED_EDGE ( 'NONE', *, *, #302, .F. ) ;
#79 = AXIS2_PLACEMENT_3D ( 'NONE', #340, #58, #363 ) ;
#80 = CARTESIAN_POINT ( 'NONE',  ( 2.793185071074513784E-15, 0.000000000000000000, 0.8000000000000020428 ) ) ;
#81 = FACE_OUTER_BOUND ( 'NONE', #261, .T. ) ;
#82 = AXIS2_PLACEMENT_3D ( 'NONE', #178, #28, #150 ) ;
#83 = ORIENTED_EDGE ( 'NONE', *, *, #348, .T. ) ;
#84 = DESIGN_CONTEXT ( 'detailed design', #12, 'design' ) ;
#85 = CARTESIAN_POINT ( 'NONE',  ( 1.326762908760390423E-13, 0.000000000000000000, 38.00000000000000000 ) ) ;
#86 = EDGE_CURVE ( 'NONE', #318, #318, #394, .T. ) ;
#87 = CARTESIAN_POINT ( 'NONE',  ( 1.571166602479406657E-15, 0.000000000000000000, 0.4499999999999990119 ) ) ;
#88 = CARTESIAN_POINT ( 'NONE',  ( 0.7650000000000006795, 0.000000000000000000, 0.1833333333333312665 ) ) ;
#89 = COORDINATED_UNIVERSAL_TIME_OFFSET ( 1, 0, .AHEAD. ) ;
#90 = EDGE_LOOP ( 'NONE', ( #141 ) ) ;
#91 = AXIS2_PLACEMENT_3D ( 'NONE', #183, #203, #326 ) ;
#92 = PLANE ( 'NONE',  #352 ) ;
#93 = DIRECTION ( 'NONE',  ( 3.491481338843133355E-15, -0.000000000000000000, 1.000000000000000000 ) ) ;
#94 = PERSON_AND_ORGANIZATION ( #222, #220 ) ;
#95 = CIRCLE ( 'NONE', #128, 0.7650000000000000133 ) ;
#96 = ADVANCED_FACE ( 'NONE', ( #6, #212 ), #278, .T. ) ;
#97 = DIRECTION ( 'NONE',  ( 1.000000000000000000, 0.000000000000000000, 0.000000000000000000 ) ) ;
#98 = FACE_OUTER_BOUND ( 'NONE', #49, .T. ) ;
#99 = DIRECTION ( 'NONE',  ( -3.491481338843133355E-15, 0.000000000000000000, -1.000000000000000000 ) ) ;
#100 = ADVANCED_FACE ( 'NONE', ( #330, #303 ), #274, .F. ) ;
#101 = CIRCLE ( 'NONE', #159, 0.5040741737109291076 ) ;
#102 = PLANE ( 'NONE',  #329 ) ;
#103 = ADVANCED_FACE ( 'NONE', ( #251, #55 ), #190, .T. ) ;
#104 = ORIENTED_EDGE ( 'NONE', *, *, #57, .F. ) ;
#105 = DIRECTION ( 'NONE',  ( 3.491481338843133355E-15, -0.000000000000000000, 1.000000000000000000 ) ) ;
#106 = APPROVAL_PERSON_ORGANIZATION ( #27, #36, #121 ) ;
#107 = AXIS2_PLACEMENT_3D ( 'NONE', #369, #163, #161 ) ;
#108 = ORIENTED_EDGE ( 'NONE', *, *, #242, .T. ) ;
#109 = DIRECTION ( 'NONE',  ( 1.000000000000000000, 0.000000000000000000, 0.000000000000000000 ) ) ;
#110 = CIRCLE ( 'NONE', #157, 1.499999999999996447 ) ;
#111 = VERTEX_POINT ( 'NONE', #262 ) ;
#112 = ADVANCED_FACE ( 'NONE', ( #180, #304 ), #62, .T. ) ;
#113 = FACE_OUTER_BOUND ( 'NONE', #356, .T. ) ;
#114 = CC_DESIGN_PERSON_AND_ORGANIZATION_ASSIGNMENT ( #142, #182, ( #301 ) ) ;
#115 = DIRECTION ( 'NONE',  ( -1.000000000000000000, 0.000000000000000000, 3.543144354527792031E-15 ) ) ;
#116 = ORIENTED_EDGE ( 'NONE', *, *, #302, .T. ) ;
#117 = AXIS2_PLACEMENT_3D ( 'NONE', #253, #38, #97 ) ;
#118 = CARTESIAN_POINT ( 'NONE',  ( 2.793185071074506684E-15, 0.5340598923241482998, 0.8000000000000000444 ) ) ;
#119 = DIRECTION ( 'NONE',  ( 3.491481338843133355E-15, -0.000000000000000000, 1.000000000000000000 ) ) ;
#120 = APPROVAL_STATUS ( 'not_yet_approved' ) ;
#121 = APPROVAL_ROLE ( '' ) ;
#122 = EDGE_LOOP ( 'NONE', ( #18 ) ) ;
#123 = EDGE_LOOP ( 'NONE', ( #73 ) ) ;
#124 = EDGE_CURVE ( 'NONE', #46, #46, #17, .T. ) ;
#125 = DATE_AND_TIME ( #277, #48 ) ;
#126 = PRODUCT_RELATED_PRODUCT_CATEGORY ( 'detail', '', ( #301 ) ) ;
#127 = LOCAL_TIME ( 10, 31, 45.00000000000000000, #316 ) ;
#128 = AXIS2_PLACEMENT_3D ( 'NONE', #293, #195, #173 ) ;
#129 = CARTESIAN_POINT ( 'NONE',  ( 2.036697447658488278E-15, 0.000000000000000000, 0.5833333333333314830 ) ) ;
#130 = DIRECTION ( 'NONE',  ( 1.000000000000000000, 0.000000000000000000, -3.543144354527792031E-15 ) ) ;
#131 = DIRECTION ( 'NONE',  ( 1.000000000000000000, 0.000000000000000000, -3.543144354527792031E-15 ) ) ;
#132 = CC_DESIGN_PERSON_AND_ORGANIZATION_ASSIGNMENT ( #213, #365, ( #388 ) ) ;
#133 = CARTESIAN_POINT ( 'NONE',  ( 1.222018468595107324E-15, 0.000000000000000000, 0.3500000000000030864 ) ) ;
#134 = CARTESIAN_POINT ( 'NONE',  ( 2.793185071074513784E-15, 0.000000000000000000, 0.8000000000000020428 ) ) ;
#135 = CARTESIAN_POINT ( 'NONE',  ( 1.326762908760390423E-13, 0.000000000000000000, 38.00000000000000000 ) ) ;
#136 = DIRECTION ( 'NONE',  ( 3.491481338843133355E-15, -0.000000000000000000, 1.000000000000000000 ) ) ;
#137 = EDGE_LOOP ( 'NONE', ( #40 ) ) ;
#138 = EDGE_LOOP ( 'NONE', ( #104 ) ) ;
#139 = MECHANICAL_CONTEXT ( 'NONE', #376, 'mechanical' ) ;
#140 = CARTESIAN_POINT ( 'NONE',  ( 1.316288464743861212E-13, 0.000000000000000000, 37.69999999999999574 ) ) ;
#141 = ORIENTED_EDGE ( 'NONE', *, *, #348, .F. ) ;
#142 = PERSON_AND_ORGANIZATION ( #222, #220 ) ;
#143 = CARTESIAN_POINT ( 'NONE',  ( 7.564876234160016431E-16, 0.000000000000000000, 0.2166666666666636210 ) ) ;
#144 = EDGE_LOOP ( 'NONE', ( #223 ) ) ;
#145 = DIRECTION ( 'NONE',  ( 3.491481338843133355E-15, -0.000000000000000000, 1.000000000000000000 ) ) ;
#146 = DIRECTION ( 'NONE',  ( 1.000000000000000000, 0.000000000000000000, -3.507712910982514253E-15 ) ) ;
#147 = EDGE_LOOP ( 'NONE', ( #385 ) ) ;
#148 = VERTEX_POINT ( 'NONE', #347 ) ;
#149 = CALENDAR_DATE ( 2023, 27, 9 ) ;
#150 = DIRECTION ( 'NONE',  ( 1.000000000000000000, 0.000000000000000000, -3.441405186871599441E-15 ) ) ;
#151 = PRODUCT_DEFINITION_SHAPE ( 'NONE', 'NONE',  #153 ) ;
#152 = DIRECTION ( 'NONE',  ( -3.491481338843133355E-15, 0.000000000000000000, -1.000000000000000000 ) ) ;
#153 = PRODUCT_DEFINITION ( 'UNKNOWN', '', #388, #84 ) ;
#154 = PERSON_AND_ORGANIZATION_ROLE ( 'design_supplier' ) ;
#155 = DIRECTION ( 'NONE',  ( 3.491481338843133355E-15, -0.000000000000000000, 1.000000000000000000 ) ) ;
#156 = FACE_OUTER_BOUND ( 'NONE', #52, .T. ) ;
#157 = AXIS2_PLACEMENT_3D ( 'NONE', #140, #202, #77 ) ;
#158 = ADVANCED_FACE ( 'NONE', ( #224, #345 ), #371, .T. ) ;
#159 = AXIS2_PLACEMENT_3D ( 'NONE', #70, #279, #5 ) ;
#160 = ORIENTED_EDGE ( 'NONE', *, *, #343, .T. ) ;
#161 = DIRECTION ( 'NONE',  ( -1.000000000000000000, 0.000000000000000000, 3.507712910982514253E-15 ) ) ;
#162 = CC_DESIGN_DATE_AND_TIME_ASSIGNMENT ( #125, #276, ( #153 ) ) ;
#163 = DIRECTION ( 'NONE',  ( -3.491481338843133355E-15, 0.000000000000000000, -1.000000000000000000 ) ) ;
#164 = ADVANCED_FACE ( 'NONE', ( #228, #81 ), #171, .T. ) ;
#165 = FACE_OUTER_BOUND ( 'NONE', #291, .T. ) ;
#166 = AXIS2_PLACEMENT_3D ( 'NONE', #268, #152, #115 ) ;
#167 = EDGE_CURVE ( 'NONE', #170, #170, #95, .T. ) ;
#168 = CARTESIAN_POINT ( 'NONE',  ( 1.200000000000126299, 0.000000000000000000, 37.99999999999999289 ) ) ;
#169 = ORIENTED_EDGE ( 'NONE', *, *, #167, .F. ) ;
#170 = VERTEX_POINT ( 'NONE', #88 ) ;
#171 = CYLINDRICAL_SURFACE ( 'NONE', #209, 0.7650000000000000133 ) ;
#172 = EDGE_LOOP ( 'NONE', ( #346 ) ) ;
#173 = DIRECTION ( 'NONE',  ( 1.000000000000000000, 0.000000000000000000, -3.507712910982514253E-15 ) ) ;
#174 = EDGE_LOOP ( 'NONE', ( #282 ) ) ;
#175 = CARTESIAN_POINT ( 'NONE',  ( 0.4700000000000028044, 0.000000000000000000, 0.8000000000000004885 ) ) ;
#176 = EDGE_LOOP ( 'NONE', ( #320 ) ) ;
#177 = DIRECTION ( 'NONE',  ( 3.491481338843133355E-15, -0.000000000000000000, 1.000000000000000000 ) ) ;
#178 = CARTESIAN_POINT ( 'NONE',  ( 2.324914243470868561E-14, 0.000000000000000000, 6.658819045102514877 ) ) ;
#179 = APPROVAL_ROLE ( '' ) ;
#180 = FACE_BOUND ( 'NONE', #90, .T. ) ;
#181 = CLOSED_SHELL ( 'NONE', ( #29, #158, #219, #249, #269, #96, #164, #217, #233, #13, #255, #100, #103, #8, #112, #252 ) ) ;
#182 = PERSON_AND_ORGANIZATION_ROLE ( 'design_owner' ) ;
#183 = CARTESIAN_POINT ( 'NONE',  ( 2.234548056859605347E-14, 0.000000000000000000, 6.400000000000000355 ) ) ;
#184 = APPROVAL_PERSON_ORGANIZATION ( #372, #353, #3 ) ;
#185 = CIRCLE ( 'NONE', #65, 0.7650000000000000133 ) ;
#186 = EDGE_CURVE ( 'NONE', #148, #148, #250, .T. ) ;
#187 = CARTESIAN_POINT ( 'NONE',  ( 1.326762908760390423E-13, 1.199999999999993516, 38.00000000000000000 ) ) ;
#188 = LOCAL_TIME ( 10, 31, 45.00000000000000000, #216 ) ;
#189 = ORIENTED_EDGE ( 'NONE', *, *, #186, .F. ) ;
#190 = CONICAL_SURFACE ( 'NONE', #82, 0.5040741737109291076, 0.2617993877991427465 ) ;
#191 = APPROVAL_DATE_TIME ( #349, #36 ) ;
#192 = EDGE_LOOP ( 'NONE', ( #361 ) ) ;
#193 = CARTESIAN_POINT ( 'NONE',  ( 3.622644012988331426E-14, 0.000000000000000000, 10.37566482938344414 ) ) ;
#194 =( LENGTH_UNIT ( ) NAMED_UNIT ( * ) SI_UNIT ( .MILLI., .METRE. ) );
#195 = DIRECTION ( 'NONE',  ( 3.491481338843133355E-15, -0.000000000000000000, 1.000000000000000000 ) ) ;
#196 = ORIENTED_EDGE ( 'NONE', *, *, #86, .F. ) ;
#197 = DIRECTION ( 'NONE',  ( 1.000000000000000000, 0.000000000000000000, -3.451192871279424170E-15 ) ) ;
#198 = DIRECTION ( 'NONE',  ( 3.491481338843133355E-15, -0.000000000000000000, 1.000000000000000000 ) ) ;
#199 = EDGE_CURVE ( 'NONE', #237, #237, #185, .T. ) ;
#200 = EDGE_LOOP ( 'NONE', ( #78 ) ) ;
#201 =( NAMED_UNIT ( * ) PLANE_ANGLE_UNIT ( ) SI_UNIT ( $, .RADIAN. ) );
#202 = DIRECTION ( 'NONE',  ( 3.491481338843133355E-15, -0.000000000000000000, 1.000000000000000000 ) ) ;
#203 = DIRECTION ( 'NONE',  ( 3.491481338843133355E-15, -0.000000000000000000, 1.000000000000000000 ) ) ;
#204 = CARTESIAN_POINT ( 'NONE',  ( 0.7650000000000021227, 0.000000000000000000, 0.5833333333333288184 ) ) ;
#205 = FACE_OUTER_BOUND ( 'NONE', #137, .T. ) ;
#206 = AXIS2_PLACEMENT_3D ( 'NONE', #64, #93, #130 ) ;
#207 = PLANE ( 'NONE',  #342 ) ;
#208 = CC_DESIGN_SECURITY_CLASSIFICATION ( #280, ( #388 ) ) ;
#209 = AXIS2_PLACEMENT_3D ( 'NONE', #382, #319, #21 ) ;
#210 = DIRECTION ( 'NONE',  ( -1.000000000000000000, 0.000000000000000000, 3.491481338843133355E-15 ) ) ;
#211 = PERSON_AND_ORGANIZATION ( #222, #220 ) ;
#212 = FACE_BOUND ( 'NONE', #147, .T. ) ;
#213 = PERSON_AND_ORGANIZATION ( #222, #220 ) ;
#214 = CIRCLE ( 'NONE', #275, 0.4699999999999999734 ) ;
#215 = LOCAL_TIME ( 10, 31, 45.00000000000000000, #314 ) ;
#216 = COORDINATED_UNIVERSAL_TIME_OFFSET ( 1, 0, .AHEAD. ) ;
#217 = ADVANCED_FACE ( 'NONE', ( #296, #325 ), #226, .T. ) ;
#218 = DIRECTION ( 'NONE',  ( 3.491481338843133355E-15, -0.000000000000000000, 1.000000000000000000 ) ) ;
#219 = ADVANCED_FACE ( 'NONE', ( #232, #113 ), #317, .T. ) ;
#220 = ORGANIZATION ( 'UNSPECIFIED', 'UNSPECIFIED', '' ) ;
#221 = DIRECTION ( 'NONE',  ( 1.000000000000000000, 0.000000000000000000, -3.491481338843133750E-15 ) ) ;
#222 = PERSON ( 'UNSPECIFIED', 'UNSPECIFIED', 'UNSPECIFIED', ('UNSPECIFIED'), ('UNSPECIFIED'), ('UNSPECIFIED') ) ;
#223 = ORIENTED_EDGE ( 'NONE', *, *, #32, .F. ) ;
#224 = FACE_OUTER_BOUND ( 'NONE', #259, .T. ) ;
#225 = CC_DESIGN_APPROVAL ( #331, ( #388 ) ) ;
#226 = CONICAL_SURFACE ( 'NONE', #166, 0.7650000000000000133, 1.047197551196602960 ) ;
#227 = EDGE_LOOP ( 'NONE', ( #83 ) ) ;
#228 = FACE_OUTER_BOUND ( 'NONE', #138, .T. ) ;
#229 = CALENDAR_DATE ( 2023, 27, 9 ) ;
#230 = ORIENTED_EDGE ( 'NONE', *, *, #86, .T. ) ;
#231 = VERTEX_POINT ( 'NONE', #204 ) ;
#232 = FACE_OUTER_BOUND ( 'NONE', #45, .T. ) ;
#233 = ADVANCED_FACE ( 'NONE', ( #51, #205 ), #47, .T. ) ;
#234 = CC_DESIGN_APPROVAL ( #36, ( #280 ) ) ;
#235 = CONICAL_SURFACE ( 'NONE', #107, 0.7650000000000000133, 1.047197551196580312 ) ;
#236 = ORIENTED_EDGE ( 'NONE', *, *, #199, .T. ) ;
#237 = VERTEX_POINT ( 'NONE', #239 ) ;
#238 = CARTESIAN_POINT ( 'NONE',  ( 2.234548056859606294E-14, 0.000000000000000000, 6.400000000000003020 ) ) ;
#239 = CARTESIAN_POINT ( 'NONE',  ( 0.7650000000000007905, 0.000000000000000000, 0.2166666666666609287 ) ) ;
#240 = FACE_OUTER_BOUND ( 'NONE', #123, .T. ) ;
#241 = FACE_OUTER_BOUND ( 'NONE', #174, .T. ) ;
#242 = EDGE_CURVE ( 'NONE', #298, #298, #110, .T. ) ;
#243 = APPROVAL_PERSON_ORGANIZATION ( #395, #331, #179 ) ;
#244 = AXIS2_PLACEMENT_3D ( 'NONE', #193, #198, #328 ) ;
#245 = APPROVAL_STATUS ( 'not_yet_approved' ) ;
#246 = CYLINDRICAL_SURFACE ( 'NONE', #341, 1.499999999999998224 ) ;
#247 = DATE_AND_TIME ( #60, #43 ) ;
#248 = APPLICATION_PROTOCOL_DEFINITION ( 'international standard', 'config_control_design', 1994, #12 ) ;
#249 = ADVANCED_FACE ( 'NONE', ( #54, #24 ), #235, .T. ) ;
#250 = CIRCLE ( 'NONE', #244, 1.500000000000000000 ) ;
#251 = FACE_OUTER_BOUND ( 'NONE', #306, .T. ) ;
#252 = ADVANCED_FACE ( 'NONE', ( #313 ), #102, .F. ) ;
#253 = CARTESIAN_POINT ( 'NONE',  ( 1.326762908760390423E-13, 0.000000000000000000, 38.00000000000000000 ) ) ;
#254 = DIRECTION ( 'NONE',  ( 1.000000000000000000, 0.000000000000000000, 0.000000000000000000 ) ) ;
#255 = ADVANCED_FACE ( 'NONE', ( #67, #165 ), #10, .T. ) ;
#256 = EDGE_LOOP ( 'NONE', ( #35 ) ) ;
#257 = APPLICATION_PROTOCOL_DEFINITION ( 'international standard', 'config_control_design', 1994, #376 ) ;
#258 = CIRCLE ( 'NONE', #378, 0.4474573519457045179 ) ;
#259 = EDGE_LOOP ( 'NONE', ( #169 ) ) ;
#260 = DIRECTION ( 'NONE',  ( 1.000000000000000000, 0.000000000000000000, -3.491481338843133750E-15 ) ) ;
#261 = EDGE_LOOP ( 'NONE', ( #160 ) ) ;
#262 = CARTESIAN_POINT ( 'NONE',  ( 0.5340598923241509643, 0.000000000000000000, 0.7499999999999987788 ) ) ;
#263 = DIRECTION ( 'NONE',  ( 3.491481338843133355E-15, -0.000000000000000000, 1.000000000000000000 ) ) ;
#264 = CIRCLE ( 'NONE', #366, 0.7650000000000000133 ) ;
#265 =( GEOMETRIC_REPRESENTATION_CONTEXT ( 3 ) GLOBAL_UNCERTAINTY_ASSIGNED_CONTEXT ( ( #23 ) ) GLOBAL_UNIT_ASSIGNED_CONTEXT ( ( #194, #201, #53 ) ) REPRESENTATION_CONTEXT ( 'NONE', 'WORKASPACE' ) );
#266 = FACE_BOUND ( 'NONE', #200, .T. ) ;
#267 = CARTESIAN_POINT ( 'NONE',  ( 0.000000000000000000, 0.000000000000000000, 0.000000000000000000 ) ) ;
#268 = CARTESIAN_POINT ( 'NONE',  ( 2.153080158953270565E-15, 0.000000000000000000, 0.6166666666666681396 ) ) ;
#269 = ADVANCED_FACE ( 'NONE', ( #373, #367 ), #286, .T. ) ;
#270 = PERSON_AND_ORGANIZATION ( #222, #220 ) ;
#271 = CARTESIAN_POINT ( 'NONE',  ( 1.128313600387294783E-35, 0.000000000000000000, 3.231618590753086925E-21 ) ) ;
#272 = CARTESIAN_POINT ( 'NONE',  ( 0.000000000000000000, 0.000000000000000000, 0.000000000000000000 ) ) ;
#273 = DIRECTION ( 'NONE',  ( -3.491481338843133355E-15, 0.000000000000000000, -1.000000000000000000 ) ) ;
#274 = TOROIDAL_SURFACE ( 'NONE', #91, 1.469999999999999307, 1.000000000000000000 ) ;
#275 = AXIS2_PLACEMENT_3D ( 'NONE', #134, #370, #44 ) ;
#276 = DATE_TIME_ROLE ( 'creation_date' ) ;
#277 = CALENDAR_DATE ( 2023, 27, 9 ) ;
#278 = CONICAL_SURFACE ( 'NONE', #380, 0.5340598923241484108, 1.047197551196602960 ) ;
#279 = DIRECTION ( 'NONE',  ( 3.491481338843133355E-15, -0.000000000000000000, 1.000000000000000000 ) ) ;
#280 = SECURITY_CLASSIFICATION ( '', '', #392 ) ;
#281 = AXIS2_PLACEMENT_3D ( 'NONE', #133, #105, #72 ) ;
#282 = ORIENTED_EDGE ( 'NONE', *, *, #360, .T. ) ;
#283 = EDGE_CURVE ( 'NONE', #74, #74, #258, .T. ) ;
#284 = MANIFOLD_SOLID_BREP ( 'Corps-Déplacer/Copier1', #181 ) ;
#285 = DIRECTION ( 'NONE',  ( 3.491481338843133355E-15, -0.000000000000000000, 1.000000000000000000 ) ) ;
#286 = CYLINDRICAL_SURFACE ( 'NONE', #117, 0.5340598923241484108 ) ;
#287 = CIRCLE ( 'NONE', #4, 0.5340598923241484108 ) ;
#288 = AXIS2_PLACEMENT_3D ( 'NONE', #272, #354, #260 ) ;
#289 = EDGE_LOOP ( 'NONE', ( #230 ) ) ;
#290 = VERTEX_POINT ( 'NONE', #175 ) ;
#291 = EDGE_LOOP ( 'NONE', ( #116 ) ) ;
#292 = CARTESIAN_POINT ( 'NONE',  ( 0.5340598923241510754, 0.000000000000000000, 0.8000000000000002665 ) ) ;
#293 = CARTESIAN_POINT ( 'NONE',  ( 6.401049121212433174E-16, 0.000000000000000000, 0.1833333333333339588 ) ) ;
#294 = AXIS2_PLACEMENT_3D ( 'NONE', #85, #119, #322 ) ;
#295 = ORIENTED_EDGE ( 'NONE', *, *, #124, .F. ) ;
#296 = FACE_BOUND ( 'NONE', #300, .T. ) ;
#297 = ORIENTED_EDGE ( 'NONE', *, *, #283, .F. ) ;
#298 = VERTEX_POINT ( 'NONE', #359 ) ;
#299 = CC_DESIGN_PERSON_AND_ORGANIZATION_ASSIGNMENT ( #94, #30, ( #280 ) ) ;
#300 = EDGE_LOOP ( 'NONE', ( #374 ) ) ;
#301 = PRODUCT ( '961184', '961184', '', ( #139 ) ) ;
#302 = EDGE_CURVE ( 'NONE', #290, #290, #214, .T. ) ;
#303 = FACE_OUTER_BOUND ( 'NONE', #289, .T. ) ;
#304 = FACE_OUTER_BOUND ( 'NONE', #315, .T. ) ;
#305 = APPROVAL_DATE_TIME ( #20, #353 ) ;
#306 = EDGE_LOOP ( 'NONE', ( #189 ) ) ;
#307 = CARTESIAN_POINT ( 'NONE',  ( 1.326762908760390423E-13, 0.000000000000000000, 38.00000000000000000 ) ) ;
#308 = EDGE_CURVE ( 'NONE', #111, #111, #287, .T. ) ;
#309 = APPROVAL_STATUS ( 'not_yet_approved' ) ;
#310 = CIRCLE ( 'NONE', #206, 0.7650000000000000133 ) ;
#311 = DIRECTION ( 'NONE',  ( 3.491481338843133355E-15, -0.000000000000000000, 1.000000000000000000 ) ) ;
#312 = ORIENTED_EDGE ( 'NONE', *, *, #242, .F. ) ;
#313 = FACE_OUTER_BOUND ( 'NONE', #227, .T. ) ;
#314 = COORDINATED_UNIVERSAL_TIME_OFFSET ( 1, 0, .AHEAD. ) ;
#315 = EDGE_LOOP ( 'NONE', ( #108 ) ) ;
#316 = COORDINATED_UNIVERSAL_TIME_OFFSET ( 1, 0, .AHEAD. ) ;
#317 = CYLINDRICAL_SURFACE ( 'NONE', #294, 0.7650000000000000133 ) ;
#318 = VERTEX_POINT ( 'NONE', #384 ) ;
#319 = DIRECTION ( 'NONE',  ( 3.491481338843133355E-15, -0.000000000000000000, 1.000000000000000000 ) ) ;
#320 = ORIENTED_EDGE ( 'NONE', *, *, #333, .T. ) ;
#321 = VERTEX_POINT ( 'NONE', #50 ) ;
#322 = DIRECTION ( 'NONE',  ( 1.000000000000000000, 0.000000000000000000, 0.000000000000000000 ) ) ;
#323 = ORIENTED_EDGE ( 'NONE', *, *, #199, .F. ) ;
#324 = VERTEX_POINT ( 'NONE', #292 ) ;
#325 = FACE_OUTER_BOUND ( 'NONE', #172, .T. ) ;
#326 = DIRECTION ( 'NONE',  ( 1.000000000000000000, 0.000000000000000000, -3.491481338843133355E-15 ) ) ;
#327 = VERTEX_POINT ( 'NONE', #168 ) ;
#328 = DIRECTION ( 'NONE',  ( 1.000000000000000000, 0.000000000000000000, -3.469446951953614189E-15 ) ) ;
#329 = AXIS2_PLACEMENT_3D ( 'NONE', #187, #99, #66 ) ;
#330 = FACE_OUTER_BOUND ( 'NONE', #377, .T. ) ;
#331 = APPROVAL ( #245, 'UNSPECIFIED' ) ;
#332 = DIRECTION ( 'NONE',  ( 1.000000000000000000, 0.000000000000000000, -3.690901012716615975E-15 ) ) ;
#333 = EDGE_CURVE ( 'NONE', #379, #379, #101, .T. ) ;
#334 = COORDINATED_UNIVERSAL_TIME_OFFSET ( 1, 0, .AHEAD. ) ;
#335 = DIRECTION ( 'NONE',  ( 3.491481338843133355E-15, -0.000000000000000000, 1.000000000000000000 ) ) ;
#336 = AXIS2_PLACEMENT_3D ( 'NONE', #238, #358, #332 ) ;
#337 = CC_DESIGN_DATE_AND_TIME_ASSIGNMENT ( #338, #63, ( #280 ) ) ;
#338 = DATE_AND_TIME ( #149, #188 ) ;
#339 = DIRECTION ( 'NONE',  ( 1.000000000000000000, 0.000000000000000000, -5.782411586589388010E-15 ) ) ;
#340 = CARTESIAN_POINT ( 'NONE',  ( 1.571166602479406657E-15, 0.000000000000000000, 0.4499999999999990119 ) ) ;
#341 = AXIS2_PLACEMENT_3D ( 'NONE', #307, #155, #362 ) ;
#342 = AXIS2_PLACEMENT_3D ( 'NONE', #271, #390, #368 ) ;
#343 = EDGE_CURVE ( 'NONE', #231, #231, #264, .T. ) ;
#344 = CARTESIAN_POINT ( 'NONE',  ( 2.618611004132352383E-15, 0.000000000000000000, 0.7500000000000006661 ) ) ;
#345 = FACE_BOUND ( 'NONE', #69, .T. ) ;
#346 = ORIENTED_EDGE ( 'NONE', *, *, #57, .T. ) ;
#347 = CARTESIAN_POINT ( 'NONE',  ( 1.500000000000036193, 0.000000000000000000, 10.37566482938343881 ) ) ;
#348 = EDGE_CURVE ( 'NONE', #327, #327, #33, .T. ) ;
#349 = DATE_AND_TIME ( #229, #215 ) ;
#350 = CARTESIAN_POINT ( 'NONE',  ( 0.5340598923241496321, 0.000000000000000000, 0.3500000000000012546 ) ) ;
#351 = CALENDAR_DATE ( 2023, 27, 9 ) ;
#352 = AXIS2_PLACEMENT_3D ( 'NONE', #118, #273, #210 ) ;
#353 = APPROVAL ( #309, 'UNSPECIFIED' ) ;
#354 = DIRECTION ( 'NONE',  ( 3.491481338843133355E-15, -0.000000000000000000, 1.000000000000000000 ) ) ;
#355 = ORIENTED_EDGE ( 'NONE', *, *, #333, .F. ) ;
#356 = EDGE_LOOP ( 'NONE', ( #75 ) ) ;
#357 = CARTESIAN_POINT ( 'NONE',  ( 0.5040741737109523113, 0.000000000000000000, 6.658819045102513989 ) ) ;
#358 = DIRECTION ( 'NONE',  ( 3.491481338843133355E-15, -0.000000000000000000, 1.000000000000000000 ) ) ;
#359 = CARTESIAN_POINT ( 'NONE',  ( 1.500000000000127898, 0.000000000000000000, 37.69999999999998863 ) ) ;
#360 = EDGE_CURVE ( 'NONE', #324, #324, #68, .T. ) ;
#361 = ORIENTED_EDGE ( 'NONE', *, *, #124, .T. ) ;
#362 = DIRECTION ( 'NONE',  ( 1.000000000000000000, 0.000000000000000000, -4.625929269271490844E-15 ) ) ;
#363 = DIRECTION ( 'NONE',  ( 1.000000000000000000, 0.000000000000000000, -3.451192871279423381E-15 ) ) ;
#364 = APPROVAL_DATE_TIME ( #247, #331 ) ;
#365 = PERSON_AND_ORGANIZATION_ROLE ( 'creator' ) ;
#366 = AXIS2_PLACEMENT_3D ( 'NONE', #129, #285, #131 ) ;
#367 = FACE_OUTER_BOUND ( 'NONE', #192, .T. ) ;
#368 = DIRECTION ( 'NONE',  ( 1.000000000000000000, 0.000000000000000000, -3.491481338843133355E-15 ) ) ;
#369 = CARTESIAN_POINT ( 'NONE',  ( 7.564876234160016431E-16, 0.000000000000000000, 0.2166666666666636210 ) ) ;
#370 = DIRECTION ( 'NONE',  ( 3.491481338843133355E-15, -0.000000000000000000, 1.000000000000000000 ) ) ;
#371 = CONICAL_SURFACE ( 'NONE', #288, 0.4474573519457045179, 1.047197551196598075 ) ;
#372 = PERSON_AND_ORGANIZATION ( #222, #220 ) ;
#373 = FACE_OUTER_BOUND ( 'NONE', #144, .T. ) ;
#374 = ORIENTED_EDGE ( 'NONE', *, *, #308, .F. ) ;
#375 = DIRECTION ( 'NONE',  ( 1.000000000000000000, 0.000000000000000000, -3.451192871279423381E-15 ) ) ;
#376 = APPLICATION_CONTEXT ( 'configuration controlled 3d designs of mechanical parts and assemblies' ) ;
#377 = EDGE_LOOP ( 'NONE', ( #355 ) ) ;
#378 = AXIS2_PLACEMENT_3D ( 'NONE', #41, #9, #221 ) ;
#379 = VERTEX_POINT ( 'NONE', #357 ) ;
#380 = AXIS2_PLACEMENT_3D ( 'NONE', #87, #335, #61 ) ;
#381 = EDGE_LOOP ( 'NONE', ( #196 ) ) ;
#382 = CARTESIAN_POINT ( 'NONE',  ( 1.326762908760390423E-13, 0.000000000000000000, 38.00000000000000000 ) ) ;
#383 = SHAPE_DEFINITION_REPRESENTATION ( #151, #59 ) ;
#384 = CARTESIAN_POINT ( 'NONE',  ( 0.4700000000000216227, 0.000000000000000000, 6.400000000000001243 ) ) ;
#385 = ORIENTED_EDGE ( 'NONE', *, *, #32, .T. ) ;
#386 = VERTEX_POINT ( 'NONE', #76 ) ;
#387 = DIRECTION ( 'NONE',  ( 1.000000000000000000, 0.000000000000000000, 0.000000000000000000 ) ) ;
#388 = PRODUCT_DEFINITION_FORMATION_WITH_SPECIFIED_SOURCE ( 'ANY', '', #301, .NOT_KNOWN. ) ;
#389 = AXIS2_PLACEMENT_3D ( 'NONE', #16, #263, #387 ) ;
#390 = DIRECTION ( 'NONE',  ( 3.491481338843133355E-15, -0.000000000000000000, 1.000000000000000000 ) ) ;
#391 = DIRECTION ( 'NONE',  ( 0.000000000000000000, 0.000000000000000000, 1.000000000000000000 ) ) ;
#392 = SECURITY_CLASSIFICATION_LEVEL ( 'unclassified' ) ;
#393 = DIRECTION ( 'NONE',  ( -3.491481338843133355E-15, 0.000000000000000000, -1.000000000000000000 ) ) ;
#394 = CIRCLE ( 'NONE', #336, 0.4699999999999993072 ) ;
#395 = PERSON_AND_ORGANIZATION ( #222, #220 ) ;
ENDSEC;
END-ISO-10303-21;
