ISO-10303-21;
HEADER;
FILE_DESCRIPTION (( 'STEP AP203' ),
    '1' );
FILE_NAME ('961183.step',
    '2023-09-27T08:31:45',
    ( '' ),
    ( '' ),
    'SwSTEP 2.0',
    'SolidWorks 2022',
    '' );
FILE_SCHEMA (( 'CONFIG_CONTROL_DESIGN' ));
ENDSEC;

DATA;
#1 = APPROVAL ( #333, 'UNSPECIFIED' ) ;
#2 = APPLICATION_CONTEXT ( 'configuration controlled 3d designs of mechanical parts and assemblies' ) ;
#3 = CIRCLE ( 'NONE', #87, 0.4199999999999993738 ) ;
#4 = CARTESIAN_POINT ( 'NONE',  ( 3.478307061408949801E-14, 0.000000000000000000, 9.962267369761887537 ) ) ;
#5 = EDGE_CURVE ( 'NONE', #81, #81, #14, .T. ) ;
#6 = CONICAL_SURFACE ( 'NONE', #107, 0.6949999999999999512, 1.047197551196596743 ) ;
#7 = ORIENTED_EDGE ( 'NONE', *, *, #132, .F. ) ;
#8 = FACE_OUTER_BOUND ( 'NONE', #371, .T. ) ;
#9 = COORDINATED_UNIVERSAL_TIME_OFFSET ( 1, 0, .AHEAD. ) ;
#10 = LOCAL_TIME ( 10, 31, 45.00000000000000000, #154 ) ;
#11 = ORIENTED_EDGE ( 'NONE', *, *, #59, .T. ) ;
#12 = DIRECTION ( 'NONE',  ( -3.491481338843133355E-15, 0.000000000000000000, -1.000000000000000000 ) ) ;
#13 = VERTEX_POINT ( 'NONE', #198 ) ;
#14 = CIRCLE ( 'NONE', #311, 0.6949999999999999512 ) ;
#15 = AXIS2_PLACEMENT_3D ( 'NONE', #254, #262, #344 ) ;
#16 = CARTESIAN_POINT ( 'NONE',  ( 0.6950000000000005063, 0.000000000000000000, 0.1604166666666673735 ) ) ;
#17 = CARTESIAN_POINT ( 'NONE',  ( 1.883945139084117760E-15, 0.000000000000000000, 0.5395833333333364124 ) ) ;
#18 = APPROVAL_DATE_TIME ( #41, #1 ) ;
#19 = VERTEX_POINT ( 'NONE', #114 ) ;
#20 = DIRECTION ( 'NONE',  ( 3.491481338843133355E-15, -0.000000000000000000, 1.000000000000000000 ) ) ;
#21 = VERTEX_POINT ( 'NONE', #78 ) ;
#22 = CYLINDRICAL_SURFACE ( 'NONE', #212, 1.499999999999998224 ) ;
#23 = CC_DESIGN_PERSON_AND_ORGANIZATION_ASSIGNMENT ( #91, #303, ( #37 ) ) ;
#24 = COORDINATED_UNIVERSAL_TIME_OFFSET ( 1, 0, .AHEAD. ) ;
#25 = CIRCLE ( 'NONE', #307, 0.6949999999999999512 ) ;
#26 = DIRECTION ( 'NONE',  ( 1.000000000000000000, 0.000000000000000000, 0.000000000000000000 ) ) ;
#27 = EDGE_LOOP ( 'NONE', ( #11 ) ) ;
#28 = AXIS2_PLACEMENT_3D ( 'NONE', #326, #238, #145 ) ;
#29 = CARTESIAN_POINT ( 'NONE',  ( 1.374770777169477842E-15, 0.000000000000000000, 0.3937499999999982681 ) ) ;
#30 = EDGE_CURVE ( 'NONE', #172, #172, #393, .T. ) ;
#31 = EDGE_LOOP ( 'NONE', ( #247 ) ) ;
#32 = DIRECTION ( 'NONE',  ( 1.000000000000000000, 0.000000000000000000, -3.491481338843133355E-15 ) ) ;
#33 = DATE_AND_TIME ( #270, #65 ) ;
#34 = ADVANCED_FACE ( 'NONE', ( #184, #305 ), #130, .T. ) ;
#35 = ORIENTED_EDGE ( 'NONE', *, *, #97, .T. ) ;
#36 = DIRECTION ( 'NONE',  ( 3.491481338843133355E-15, -0.000000000000000000, 1.000000000000000000 ) ) ;
#37 = SECURITY_CLASSIFICATION ( '', '', #61 ) ;
#38 = EDGE_CURVE ( 'NONE', #46, #46, #25, .T. ) ;
#39 = ORIENTED_EDGE ( 'NONE', *, *, #387, .T. ) ;
#40 = EDGE_LOOP ( 'NONE', ( #342 ) ) ;
#41 = DATE_AND_TIME ( #116, #165 ) ;
#42 = EDGE_LOOP ( 'NONE', ( #152 ) ) ;
#43 = CARTESIAN_POINT ( 'NONE',  ( 1.326762908760390423E-13, 0.000000000000000000, 38.00000000000000000 ) ) ;
#44 = DIRECTION ( 'NONE',  ( 0.000000000000000000, 0.000000000000000000, 1.000000000000000000 ) ) ;
#45 = CARTESIAN_POINT ( 'NONE',  ( 6.619266704890104357E-16, 0.000000000000000000, 0.1895833333333332704 ) ) ;
#46 = VERTEX_POINT ( 'NONE', #16 ) ;
#47 = DIRECTION ( 'NONE',  ( 1.000000000000000000, 0.000000000000000000, -3.519227082168491783E-15 ) ) ;
#48 = CONICAL_SURFACE ( 'NONE', #68, 1.499999999999996447, 0.7853981633974501664 ) ;
#49 = CARTESIAN_POINT ( 'NONE',  ( 0.6950000000000016165, 0.000000000000000000, 0.5104166666666636321 ) ) ;
#50 = DIRECTION ( 'NONE',  ( 1.000000000000000000, 0.000000000000000000, -3.432006876932533006E-15 ) ) ;
#51 = AXIS2_PLACEMENT_3D ( 'NONE', #242, #360, #210 ) ;
#52 = CARTESIAN_POINT ( 'NONE',  ( 1.500000000000127898, 0.000000000000000000, 37.69999999999998863 ) ) ;
#53 = LOCAL_TIME ( 10, 31, 45.00000000000000000, #286 ) ;
#54 = FACE_OUTER_BOUND ( 'NONE', #71, .T. ) ;
#55 = DIRECTION ( 'NONE',  ( 3.491481338843133355E-15, -0.000000000000000000, 1.000000000000000000 ) ) ;
#56 = PERSON_AND_ORGANIZATION_ROLE ( 'design_supplier' ) ;
#57 = FACE_OUTER_BOUND ( 'NONE', #312, .T. ) ;
#58 = DIRECTION ( 'NONE',  ( 3.491481338843133355E-15, -0.000000000000000000, 1.000000000000000000 ) ) ;
#59 = EDGE_CURVE ( 'NONE', #13, #13, #366, .T. ) ;
#60 = DIRECTION ( 'NONE',  ( 3.491481338843133355E-15, -0.000000000000000000, 1.000000000000000000 ) ) ;
#61 = SECURITY_CLASSIFICATION_LEVEL ( 'unclassified' ) ;
#62 = AXIS2_PLACEMENT_3D ( 'NONE', #170, #12, #320 ) ;
#63 = ADVANCED_FACE ( 'NONE', ( #223, #134 ), #141, .T. ) ;
#64 = ORIENTED_EDGE ( 'NONE', *, *, #38, .T. ) ;
#65 = LOCAL_TIME ( 10, 31, 45.00000000000000000, #24 ) ;
#66 = CARTESIAN_POINT ( 'NONE',  ( 2.444036937190190588E-15, 0.000000000000000000, 0.6999999999999992895 ) ) ;
#67 = ORIENTED_EDGE ( 'NONE', *, *, #218, .F. ) ;
#68 = AXIS2_PLACEMENT_3D ( 'NONE', #281, #256, #190 ) ;
#69 = EDGE_CURVE ( 'NONE', #226, #226, #334, .T. ) ;
#70 = CARTESIAN_POINT ( 'NONE',  ( 5.600917981060968883E-16, 0.000000000000000000, 0.1604166666666698160 ) ) ;
#71 = EDGE_LOOP ( 'NONE', ( #187 ) ) ;
#72 = DIRECTION ( 'NONE',  ( 1.000000000000000000, 0.000000000000000000, -4.625929269271496366E-15 ) ) ;
#73 = AXIS2_PLACEMENT_3D ( 'NONE', #80, #173, #232 ) ;
#74 = AXIS2_PLACEMENT_3D ( 'NONE', #109, #291, #382 ) ;
#75 =( NAMED_UNIT ( * ) PLANE_ANGLE_UNIT ( ) SI_UNIT ( $, .RADIAN. ) );
#76 = ADVANCED_FACE ( 'NONE', ( #343, #323 ), #6, .T. ) ;
#77 = CALENDAR_DATE ( 2023, 27, 9 ) ;
#78 = CARTESIAN_POINT ( 'NONE',  ( 0.4929274057836307565, 0.000000000000000000, 0.3062499999999992450 ) ) ;
#79 = CC_DESIGN_APPROVAL ( #1, ( #179 ) ) ;
#80 = CARTESIAN_POINT ( 'NONE',  ( 2.444036937190190588E-15, 0.000000000000000000, 0.6999999999999992895 ) ) ;
#81 = VERTEX_POINT ( 'NONE', #143 ) ;
#82 = CARTESIAN_POINT ( 'NONE',  ( 1.326762908760390423E-13, 0.000000000000000000, 38.00000000000000000 ) ) ;
#83 = EDGE_CURVE ( 'NONE', #322, #322, #138, .T. ) ;
#84 = VERTEX_POINT ( 'NONE', #296 ) ;
#85 = ORIENTED_EDGE ( 'NONE', *, *, #356, .T. ) ;
#86 = DIRECTION ( 'NONE',  ( -1.000000000000000000, 0.000000000000000000, 3.510007033226453485E-15 ) ) ;
#87 = AXIS2_PLACEMENT_3D ( 'NONE', #394, #125, #245 ) ;
#88 = CARTESIAN_POINT ( 'NONE',  ( 1.069266160020712943E-15, 0.000000000000000000, 0.3062500000000009659 ) ) ;
#89 = FACE_OUTER_BOUND ( 'NONE', #40, .T. ) ;
#90 = PLANE ( 'NONE',  #51 ) ;
#91 = PERSON_AND_ORGANIZATION ( #297, #213 ) ;
#92 = CLOSED_SHELL ( 'NONE', ( #373, #205, #293, #76, #188, #248, #34, #129, #149, #318, #63, #196, #313, #285, #100, #169 ) ) ;
#93 = DIRECTION ( 'NONE',  ( 3.491481338843133355E-15, -0.000000000000000000, 1.000000000000000000 ) ) ;
#94 = AXIS2_PLACEMENT_3D ( 'NONE', #380, #224, #229 ) ;
#95 = DIRECTION ( 'NONE',  ( 1.000000000000000000, 0.000000000000000000, -3.519227082168490994E-15 ) ) ;
#96 = APPLICATION_PROTOCOL_DEFINITION ( 'international standard', 'config_control_design', 1994, #302 ) ;
#97 = EDGE_CURVE ( 'NONE', #195, #195, #104, .T. ) ;
#98 = ORIENTED_EDGE ( 'NONE', *, *, #177, .T. ) ;
#99 = CIRCLE ( 'NONE', #28, 0.4929274057836297573 ) ;
#100 = ADVANCED_FACE ( 'NONE', ( #379, #8 ), #48, .T. ) ;
#101 = ORIENTED_EDGE ( 'NONE', *, *, #132, .T. ) ;
#102 = AXIS2_PLACEMENT_3D ( 'NONE', #4, #158, #306 ) ;
#103 = ORIENTED_EDGE ( 'NONE', *, *, #139, .F. ) ;
#104 = CIRCLE ( 'NONE', #234, 0.6949999999999998401 ) ;
#105 = DIRECTION ( 'NONE',  ( 1.000000000000000000, 0.000000000000000000, 0.000000000000000000 ) ) ;
#106 = VERTEX_POINT ( 'NONE', #292 ) ;
#107 = AXIS2_PLACEMENT_3D ( 'NONE', #45, #258, #86 ) ;
#108 = CARTESIAN_POINT ( 'NONE',  ( 0.000000000000000000, 0.000000000000000000, 0.000000000000000000 ) ) ;
#109 = CARTESIAN_POINT ( 'NONE',  ( 1.326762908760390423E-13, 1.199999999999993516, 38.00000000000000000 ) ) ;
#110 = CONICAL_SURFACE ( 'NONE', #217, 0.4929274057836297573, 1.047197551196596299 ) ;
#111 = DIRECTION ( 'NONE',  ( 3.491481338843133355E-15, -0.000000000000000000, 1.000000000000000000 ) ) ;
#112 = CC_DESIGN_DATE_AND_TIME_ASSIGNMENT ( #135, #282, ( #179 ) ) ;
#113 = APPROVAL_DATE_TIME ( #197, #364 ) ;
#114 = CARTESIAN_POINT ( 'NONE',  ( 0.6950000000000017275, 0.000000000000000000, 0.5395833333333339699 ) ) ;
#115 = DIRECTION ( 'NONE',  ( 3.491481338843133355E-15, -0.000000000000000000, 1.000000000000000000 ) ) ;
#116 = CALENDAR_DATE ( 2023, 27, 9 ) ;
#117 = AXIS2_PLACEMENT_3D ( 'NONE', #82, #202, #289 ) ;
#118 = ORIENTED_EDGE ( 'NONE', *, *, #38, .F. ) ;
#119 = FACE_OUTER_BOUND ( 'NONE', #208, .T. ) ;
#120 = ORIENTED_EDGE ( 'NONE', *, *, #177, .F. ) ;
#121 = FACE_BOUND ( 'NONE', #278, .T. ) ;
#122 = CC_DESIGN_PERSON_AND_ORGANIZATION_ASSIGNMENT ( #230, #349, ( #228 ) ) ;
#123 = CARTESIAN_POINT ( 'NONE',  ( 2.115425363140279297E-14, 0.000000000000000000, 6.058819045102511680 ) ) ;
#124 = PERSON_AND_ORGANIZATION_ROLE ( 'design_owner' ) ;
#125 = DIRECTION ( 'NONE',  ( 3.491481338843133355E-15, -0.000000000000000000, 1.000000000000000000 ) ) ;
#126 = ORIENTED_EDGE ( 'NONE', *, *, #59, .F. ) ;
#127 = EDGE_LOOP ( 'NONE', ( #288 ) ) ;
#128 = CARTESIAN_POINT ( 'NONE',  ( 6.619266704890104357E-16, 0.000000000000000000, 0.1895833333333332704 ) ) ;
#129 = ADVANCED_FACE ( 'NONE', ( #314, #346 ), #185, .T. ) ;
#130 = CYLINDRICAL_SURFACE ( 'NONE', #233, 0.6949999999999998401 ) ;
#131 = FACE_OUTER_BOUND ( 'NONE', #335, .T. ) ;
#132 = EDGE_CURVE ( 'NONE', #200, #200, #361, .T. ) ;
#133 = EDGE_LOOP ( 'NONE', ( #103 ) ) ;
#134 = FACE_OUTER_BOUND ( 'NONE', #147, .T. ) ;
#135 = DATE_AND_TIME ( #77, #53 ) ;
#136 = CARTESIAN_POINT ( 'NONE',  ( 0.4171501829524913441, 0.000000000000000000, -1.456472079273622597E-15 ) ) ;
#137 = DIRECTION ( 'NONE',  ( 1.000000000000000000, 0.000000000000000000, -3.432006876932533006E-15 ) ) ;
#138 = CIRCLE ( 'NONE', #377, 1.499999999999996447 ) ;
#139 = EDGE_CURVE ( 'NONE', #106, #106, #290, .T. ) ;
#140 = EDGE_LOOP ( 'NONE', ( #101 ) ) ;
#141 = CYLINDRICAL_SURFACE ( 'NONE', #117, 0.4199999999999997069 ) ;
#142 = APPROVAL_STATUS ( 'not_yet_approved' ) ;
#143 = CARTESIAN_POINT ( 'NONE',  ( 0.6950000000000006173, 0.000000000000000000, 0.1895833333333308279 ) ) ;
#144 = CYLINDRICAL_SURFACE ( 'NONE', #201, 0.4929274057836297573 ) ;
#145 = DIRECTION ( 'NONE',  ( 1.000000000000000000, 0.000000000000000000, -3.519227082168490994E-15 ) ) ;
#146 = APPROVAL_ROLE ( '' ) ;
#147 = EDGE_LOOP ( 'NONE', ( #167 ) ) ;
#148 = CARTESIAN_POINT ( 'NONE',  ( 1.326762908760390423E-13, 0.000000000000000000, 38.00000000000000000 ) ) ;
#149 = ADVANCED_FACE ( 'NONE', ( #162, #131 ), #375, .T. ) ;
#150 = DIRECTION ( 'NONE',  ( 1.000000000000000000, 0.000000000000000000, 0.000000000000000000 ) ) ;
#151 = SHAPE_DEFINITION_REPRESENTATION ( #390, #219 ) ;
#152 = ORIENTED_EDGE ( 'NONE', *, *, #274, .F. ) ;
#153 = DIRECTION ( 'NONE',  ( 1.000000000000000000, 0.000000000000000000, -3.491481338843133750E-15 ) ) ;
#154 = COORDINATED_UNIVERSAL_TIME_OFFSET ( 1, 0, .AHEAD. ) ;
#155 = CC_DESIGN_DATE_AND_TIME_ASSIGNMENT ( #33, #300, ( #37 ) ) ;
#156 =( GEOMETRIC_REPRESENTATION_CONTEXT ( 3 ) GLOBAL_UNCERTAINTY_ASSIGNED_CONTEXT ( ( #182 ) ) GLOBAL_UNIT_ASSIGNED_CONTEXT ( ( #317, #75, #354 ) ) REPRESENTATION_CONTEXT ( 'NONE', 'WORKASPACE' ) );
#157 = EDGE_LOOP ( 'NONE', ( #220 ) ) ;
#158 = DIRECTION ( 'NONE',  ( 3.491481338843133355E-15, -0.000000000000000000, 1.000000000000000000 ) ) ;
#159 = ORIENTED_EDGE ( 'NONE', *, *, #30, .T. ) ;
#160 = DIRECTION ( 'NONE',  ( 1.000000000000000000, 0.000000000000000000, -3.510007033226453485E-15 ) ) ;
#161 = EDGE_LOOP ( 'NONE', ( #126 ) ) ;
#162 = FACE_OUTER_BOUND ( 'NONE', #161, .T. ) ;
#163 = EDGE_LOOP ( 'NONE', ( #35 ) ) ;
#164 = DIRECTION ( 'NONE',  ( 3.491481338843133355E-15, -0.000000000000000000, 1.000000000000000000 ) ) ;
#165 = LOCAL_TIME ( 10, 31, 45.00000000000000000, #370 ) ;
#166 = DIRECTION ( 'NONE',  ( 1.000000000000000000, 0.000000000000000000, 0.000000000000000000 ) ) ;
#167 = ORIENTED_EDGE ( 'NONE', *, *, #69, .T. ) ;
#168 = DIRECTION ( 'NONE',  ( 3.491481338843133355E-15, -0.000000000000000000, 1.000000000000000000 ) ) ;
#169 = ADVANCED_FACE ( 'NONE', ( #316 ), #385, .F. ) ;
#170 = CARTESIAN_POINT ( 'NONE',  ( 1.883945139084117760E-15, 0.000000000000000000, 0.5395833333333364124 ) ) ;
#171 = CIRCLE ( 'NONE', #209, 0.6949999999999998401 ) ;
#172 = VERTEX_POINT ( 'NONE', #175 ) ;
#173 = DIRECTION ( 'NONE',  ( 3.491481338843133355E-15, -0.000000000000000000, 1.000000000000000000 ) ) ;
#174 = FACE_BOUND ( 'NONE', #384, .T. ) ;
#175 = CARTESIAN_POINT ( 'NONE',  ( 1.500000000000034639, 0.000000000000000000, 9.962267369761882208 ) ) ;
#176 = CYLINDRICAL_SURFACE ( 'NONE', #341, 0.6949999999999999512 ) ;
#177 = EDGE_CURVE ( 'NONE', #19, #19, #171, .T. ) ;
#178 = CARTESIAN_POINT ( 'NONE',  ( 2.025059176529017031E-14, 0.000000000000000000, 5.799999999999999822 ) ) ;
#179 = PRODUCT_DEFINITION ( 'UNKNOWN', '', #228, #243 ) ;
#180 = FACE_OUTER_BOUND ( 'NONE', #372, .T. ) ;
#181 = AXIS2_PLACEMENT_3D ( 'NONE', #391, #363, #355 ) ;
#182 = UNCERTAINTY_MEASURE_WITH_UNIT (LENGTH_MEASURE( 1.000000000000000082E-05 ), #317, 'distance_accuracy_value', 'NONE');
#183 = APPROVAL_PERSON_ORGANIZATION ( #259, #364, #257 ) ;
#184 = FACE_OUTER_BOUND ( 'NONE', #395, .T. ) ;
#185 = CONICAL_SURFACE ( 'NONE', #62, 0.6949999999999998401, 1.047197551196622056 ) ;
#186 = EDGE_LOOP ( 'NONE', ( #189 ) ) ;
#187 = ORIENTED_EDGE ( 'NONE', *, *, #5, .F. ) ;
#188 = ADVANCED_FACE ( 'NONE', ( #348, #295 ), #144, .T. ) ;
#189 = ORIENTED_EDGE ( 'NONE', *, *, #387, .F. ) ;
#190 = DIRECTION ( 'NONE',  ( -1.000000000000000000, 0.000000000000000000, 4.625929269271496366E-15 ) ) ;
#191 = CONICAL_SURFACE ( 'NONE', #321, 0.4171501829524913441, 1.047197551196591192 ) ;
#192 = DIRECTION ( 'NONE',  ( 3.491481338843133355E-15, -0.000000000000000000, 1.000000000000000000 ) ) ;
#193 = CC_DESIGN_APPROVAL ( #364, ( #228 ) ) ;
#194 = CALENDAR_DATE ( 2023, 27, 9 ) ;
#195 = VERTEX_POINT ( 'NONE', #49 ) ;
#196 = ADVANCED_FACE ( 'NONE', ( #386, #331 ), #244, .F. ) ;
#197 = DATE_AND_TIME ( #194, #324 ) ;
#198 = CARTESIAN_POINT ( 'NONE',  ( 0.4929274057836321443, 0.000000000000000000, 0.6999999999999975131 ) ) ;
#199 = DIRECTION ( 'NONE',  ( 1.000000000000000000, 0.000000000000000000, -5.782411586589388010E-15 ) ) ;
#200 = VERTEX_POINT ( 'NONE', #264 ) ;
#201 = AXIS2_PLACEMENT_3D ( 'NONE', #265, #115, #26 ) ;
#202 = DIRECTION ( 'NONE',  ( 3.491481338843133355E-15, -0.000000000000000000, 1.000000000000000000 ) ) ;
#203 = CALENDAR_DATE ( 2023, 27, 9 ) ;
#204 = VERTEX_POINT ( 'NONE', #345 ) ;
#205 = ADVANCED_FACE ( 'NONE', ( #119, #299 ), #191, .T. ) ;
#206 = FACE_OUTER_BOUND ( 'NONE', #261, .T. ) ;
#207 = DIRECTION ( 'NONE',  ( 3.491481338843133355E-15, -0.000000000000000000, 1.000000000000000000 ) ) ;
#208 = EDGE_LOOP ( 'NONE', ( #118 ) ) ;
#209 = AXIS2_PLACEMENT_3D ( 'NONE', #17, #111, #50 ) ;
#210 = DIRECTION ( 'NONE',  ( -1.000000000000000000, 0.000000000000000000, 3.491481338843133355E-15 ) ) ;
#211 = AXIS2_PLACEMENT_3D ( 'NONE', #178, #60, #32 ) ;
#212 = AXIS2_PLACEMENT_3D ( 'NONE', #268, #241, #267 ) ;
#213 = ORGANIZATION ( 'UNSPECIFIED', 'UNSPECIFIED', '' ) ;
#214 = FACE_OUTER_BOUND ( 'NONE', #340, .T. ) ;
#215 = PERSON_AND_ORGANIZATION ( #297, #213 ) ;
#216 = EDGE_LOOP ( 'NONE', ( #357 ) ) ;
#217 = AXIS2_PLACEMENT_3D ( 'NONE', #29, #298, #95 ) ;
#218 = EDGE_CURVE ( 'NONE', #231, #231, #237, .T. ) ;
#219 = ADVANCED_BREP_SHAPE_REPRESENTATION ( '961183', ( #272, #374 ), #156 ) ;
#220 = ORIENTED_EDGE ( 'NONE', *, *, #5, .T. ) ;
#221 = CC_DESIGN_PERSON_AND_ORGANIZATION_ASSIGNMENT ( #359, #56, ( #228 ) ) ;
#222 = EDGE_LOOP ( 'NONE', ( #294 ) ) ;
#223 = FACE_OUTER_BOUND ( 'NONE', #127, .T. ) ;
#224 = DIRECTION ( 'NONE',  ( 3.491481338843133355E-15, -0.000000000000000000, 1.000000000000000000 ) ) ;
#225 = DIRECTION ( 'NONE',  ( 3.491481338843133355E-15, -0.000000000000000000, 1.000000000000000000 ) ) ;
#226 = VERTEX_POINT ( 'NONE', #319 ) ;
#227 = CARTESIAN_POINT ( 'NONE',  ( 1.316288464743861212E-13, 0.000000000000000000, 37.69999999999999574 ) ) ;
#228 = PRODUCT_DEFINITION_FORMATION_WITH_SPECIFIED_SOURCE ( 'ANY', '', #301, .NOT_KNOWN. ) ;
#229 = DIRECTION ( 'NONE',  ( 1.000000000000000000, 0.000000000000000000, -3.491481338843133355E-15 ) ) ;
#230 = PERSON_AND_ORGANIZATION ( #297, #213 ) ;
#231 = VERTEX_POINT ( 'NONE', #136 ) ;
#232 = DIRECTION ( 'NONE',  ( 1.000000000000000000, 0.000000000000000000, -3.614007241618348376E-15 ) ) ;
#233 = AXIS2_PLACEMENT_3D ( 'NONE', #279, #368, #252 ) ;
#234 = AXIS2_PLACEMENT_3D ( 'NONE', #353, #20, #137 ) ;
#235 = PERSON_AND_ORGANIZATION ( #297, #213 ) ;
#236 = CARTESIAN_POINT ( 'NONE',  ( 0.4929274057836312006, 0.000000000000000000, 0.3937499999999965472 ) ) ;
#237 = CIRCLE ( 'NONE', #181, 0.4171501829524913441 ) ;
#238 = DIRECTION ( 'NONE',  ( 3.491481338843133355E-15, -0.000000000000000000, 1.000000000000000000 ) ) ;
#239 = CC_DESIGN_APPROVAL ( #332, ( #37 ) ) ;
#240 = EDGE_LOOP ( 'NONE', ( #159 ) ) ;
#241 = DIRECTION ( 'NONE',  ( 3.491481338843133355E-15, -0.000000000000000000, 1.000000000000000000 ) ) ;
#242 = CARTESIAN_POINT ( 'NONE',  ( 2.444036937190192954E-15, 0.4929274057836296463, 0.6999999999999998446 ) ) ;
#243 = DESIGN_CONTEXT ( 'detailed design', #302, 'design' ) ;
#244 = TOROIDAL_SURFACE ( 'NONE', #211, 1.419999999999999485, 1.000000000000000000 ) ;
#245 = DIRECTION ( 'NONE',  ( 1.000000000000000000, 0.000000000000000000, -4.130293990420975208E-15 ) ) ;
#246 = APPROVAL_DATE_TIME ( #329, #332 ) ;
#247 = ORIENTED_EDGE ( 'NONE', *, *, #139, .T. ) ;
#248 = ADVANCED_FACE ( 'NONE', ( #89, #174 ), #110, .T. ) ;
#249 = DIRECTION ( 'NONE',  ( 1.000000000000000000, 0.000000000000000000, -3.510007033226453485E-15 ) ) ;
#250 = CC_DESIGN_SECURITY_CLASSIFICATION ( #37, ( #228 ) ) ;
#251 = APPROVAL_ROLE ( '' ) ;
#252 = DIRECTION ( 'NONE',  ( 1.000000000000000000, 0.000000000000000000, 0.000000000000000000 ) ) ;
#253 = AXIS2_PLACEMENT_3D ( 'NONE', #330, #58, #304 ) ;
#254 = CARTESIAN_POINT ( 'NONE',  ( 2.115425363140279297E-14, 0.000000000000000000, 6.058819045102511680 ) ) ;
#255 = APPLICATION_PROTOCOL_DEFINITION ( 'international standard', 'config_control_design', 1994, #2 ) ;
#256 = DIRECTION ( 'NONE',  ( -3.491481338843133355E-15, 0.000000000000000000, -1.000000000000000000 ) ) ;
#257 = APPROVAL_ROLE ( '' ) ;
#258 = DIRECTION ( 'NONE',  ( -3.491481338843133355E-15, 0.000000000000000000, -1.000000000000000000 ) ) ;
#259 = PERSON_AND_ORGANIZATION ( #297, #213 ) ;
#260 = PERSON_AND_ORGANIZATION ( #297, #213 ) ;
#261 = EDGE_LOOP ( 'NONE', ( #64 ) ) ;
#262 = DIRECTION ( 'NONE',  ( 3.491481338843133355E-15, -0.000000000000000000, 1.000000000000000000 ) ) ;
#263 = APPROVAL_PERSON_ORGANIZATION ( #325, #332, #146 ) ;
#264 = CARTESIAN_POINT ( 'NONE',  ( 0.4540741737109503240, 0.000000000000000000, 6.058819045102509904 ) ) ;
#265 = CARTESIAN_POINT ( 'NONE',  ( 1.326762908760390423E-13, 0.000000000000000000, 38.00000000000000000 ) ) ;
#266 = PRODUCT_RELATED_PRODUCT_CATEGORY ( 'detail', '', ( #301 ) ) ;
#267 = DIRECTION ( 'NONE',  ( 1.000000000000000000, 0.000000000000000000, -4.625929269271490844E-15 ) ) ;
#268 = CARTESIAN_POINT ( 'NONE',  ( 1.326762908760390423E-13, 0.000000000000000000, 38.00000000000000000 ) ) ;
#269 = CARTESIAN_POINT ( 'NONE',  ( 0.000000000000000000, 0.000000000000000000, 0.000000000000000000 ) ) ;
#270 = CALENDAR_DATE ( 2023, 27, 9 ) ;
#271 = DIRECTION ( 'NONE',  ( 1.000000000000000000, 0.000000000000000000, -3.820352656923314831E-15 ) ) ;
#272 = MANIFOLD_SOLID_BREP ( 'Corps-Déplacer/Copier1', #92 ) ;
#273 = CIRCLE ( 'NONE', #253, 0.4929274057836297573 ) ;
#274 = EDGE_CURVE ( 'NONE', #350, #350, #99, .T. ) ;
#275 = EDGE_LOOP ( 'NONE', ( #39 ) ) ;
#276 = EDGE_LOOP ( 'NONE', ( #7 ) ) ;
#277 = CIRCLE ( 'NONE', #381, 0.4929274057836296463 ) ;
#278 = EDGE_LOOP ( 'NONE', ( #280 ) ) ;
#279 = CARTESIAN_POINT ( 'NONE',  ( 1.326762908760390423E-13, 0.000000000000000000, 38.00000000000000000 ) ) ;
#280 = ORIENTED_EDGE ( 'NONE', *, *, #69, .F. ) ;
#281 = CARTESIAN_POINT ( 'NONE',  ( 1.316288464743861212E-13, 0.000000000000000000, 37.69999999999999574 ) ) ;
#282 = DATE_TIME_ROLE ( 'creation_date' ) ;
#283 = EDGE_LOOP ( 'NONE', ( #315 ) ) ;
#284 = CARTESIAN_POINT ( 'NONE',  ( 1.326762908760390423E-13, 0.000000000000000000, 38.00000000000000000 ) ) ;
#285 = ADVANCED_FACE ( 'NONE', ( #180, #327 ), #22, .T. ) ;
#286 = COORDINATED_UNIVERSAL_TIME_OFFSET ( 1, 0, .AHEAD. ) ;
#287 = PLANE ( 'NONE',  #94 ) ;
#288 = ORIENTED_EDGE ( 'NONE', *, *, #369, .F. ) ;
#289 = DIRECTION ( 'NONE',  ( 1.000000000000000000, 0.000000000000000000, 0.000000000000000000 ) ) ;
#290 = CIRCLE ( 'NONE', #339, 1.199999999999993516 ) ;
#291 = DIRECTION ( 'NONE',  ( -3.491481338843133355E-15, 0.000000000000000000, -1.000000000000000000 ) ) ;
#292 = CARTESIAN_POINT ( 'NONE',  ( 1.200000000000126299, 0.000000000000000000, 37.99999999999999289 ) ) ;
#293 = ADVANCED_FACE ( 'NONE', ( #54, #206 ), #176, .T. ) ;
#294 = ORIENTED_EDGE ( 'NONE', *, *, #218, .T. ) ;
#295 = FACE_OUTER_BOUND ( 'NONE', #275, .T. ) ;
#296 = CARTESIAN_POINT ( 'NONE',  ( 0.4929274057836320333, 0.000000000000000000, 0.6562499999999953371 ) ) ;
#297 = PERSON ( 'UNSPECIFIED', 'UNSPECIFIED', 'UNSPECIFIED', ('UNSPECIFIED'), ('UNSPECIFIED'), ('UNSPECIFIED') ) ;
#298 = DIRECTION ( 'NONE',  ( 3.491481338843133355E-15, -0.000000000000000000, 1.000000000000000000 ) ) ;
#299 = FACE_BOUND ( 'NONE', #222, .T. ) ;
#300 = DATE_TIME_ROLE ( 'classification_date' ) ;
#301 = PRODUCT ( '961183', '961183', '', ( #378 ) ) ;
#302 = APPLICATION_CONTEXT ( 'configuration controlled 3d designs of mechanical parts and assemblies' ) ;
#303 = PERSON_AND_ORGANIZATION_ROLE ( 'classification_officer' ) ;
#304 = DIRECTION ( 'NONE',  ( 1.000000000000000000, 0.000000000000000000, -3.519227082168490994E-15 ) ) ;
#305 = FACE_OUTER_BOUND ( 'NONE', #163, .T. ) ;
#306 = DIRECTION ( 'NONE',  ( 1.000000000000000000, 0.000000000000000000, -3.469446951953614189E-15 ) ) ;
#307 = AXIS2_PLACEMENT_3D ( 'NONE', #70, #337, #160 ) ;
#308 = ORIENTED_EDGE ( 'NONE', *, *, #274, .T. ) ;
#309 = CONICAL_SURFACE ( 'NONE', #336, 0.4540741737109291742, 0.2617993877991428020 ) ;
#310 = ORIENTED_EDGE ( 'NONE', *, *, #83, .F. ) ;
#311 = AXIS2_PLACEMENT_3D ( 'NONE', #128, #36, #249 ) ;
#312 = EDGE_LOOP ( 'NONE', ( #338 ) ) ;
#313 = ADVANCED_FACE ( 'NONE', ( #57, #388 ), #309, .T. ) ;
#314 = FACE_BOUND ( 'NONE', #283, .T. ) ;
#315 = ORIENTED_EDGE ( 'NONE', *, *, #356, .F. ) ;
#316 = FACE_OUTER_BOUND ( 'NONE', #31, .T. ) ;
#317 =( LENGTH_UNIT ( ) NAMED_UNIT ( * ) SI_UNIT ( .MILLI., .METRE. ) );
#318 = ADVANCED_FACE ( 'NONE', ( #121, #358 ), #90, .F. ) ;
#319 = CARTESIAN_POINT ( 'NONE',  ( 0.4200000000000024269, 0.000000000000000000, 0.6999999999999977351 ) ) ;
#320 = DIRECTION ( 'NONE',  ( -1.000000000000000000, 0.000000000000000000, 3.432006876932533006E-15 ) ) ;
#321 = AXIS2_PLACEMENT_3D ( 'NONE', #269, #55, #153 ) ;
#322 = VERTEX_POINT ( 'NONE', #52 ) ;
#323 = FACE_OUTER_BOUND ( 'NONE', #157, .T. ) ;
#324 = LOCAL_TIME ( 10, 31, 45.00000000000000000, #9 ) ;
#325 = PERSON_AND_ORGANIZATION ( #297, #213 ) ;
#326 = CARTESIAN_POINT ( 'NONE',  ( 1.374770777169477842E-15, 0.000000000000000000, 0.3937499999999982681 ) ) ;
#327 = FACE_OUTER_BOUND ( 'NONE', #240, .T. ) ;
#328 = CC_DESIGN_PERSON_AND_ORGANIZATION_ASSIGNMENT ( #235, #376, ( #179 ) ) ;
#329 = DATE_AND_TIME ( #203, #10 ) ;
#330 = CARTESIAN_POINT ( 'NONE',  ( 2.291284628615796404E-15, 0.000000000000000000, 0.6562499999999971134 ) ) ;
#331 = FACE_OUTER_BOUND ( 'NONE', #216, .T. ) ;
#332 = APPROVAL ( #365, 'UNSPECIFIED' ) ;
#333 = APPROVAL_STATUS ( 'not_yet_approved' ) ;
#334 = CIRCLE ( 'NONE', #73, 0.4199999999999999845 ) ;
#335 = EDGE_LOOP ( 'NONE', ( #85 ) ) ;
#336 = AXIS2_PLACEMENT_3D ( 'NONE', #123, #207, #271 ) ;
#337 = DIRECTION ( 'NONE',  ( 3.491481338843133355E-15, -0.000000000000000000, 1.000000000000000000 ) ) ;
#338 = ORIENTED_EDGE ( 'NONE', *, *, #30, .F. ) ;
#339 = AXIS2_PLACEMENT_3D ( 'NONE', #43, #164, #199 ) ;
#340 = EDGE_LOOP ( 'NONE', ( #67 ) ) ;
#341 = AXIS2_PLACEMENT_3D ( 'NONE', #148, #93, #150 ) ;
#342 = ORIENTED_EDGE ( 'NONE', *, *, #97, .F. ) ;
#343 = FACE_BOUND ( 'NONE', #186, .T. ) ;
#344 = DIRECTION ( 'NONE',  ( 1.000000000000000000, 0.000000000000000000, -3.820352656923314831E-15 ) ) ;
#345 = CARTESIAN_POINT ( 'NONE',  ( 0.4200000000000196354, 0.000000000000000000, 5.799999999999998046 ) ) ;
#346 = FACE_OUTER_BOUND ( 'NONE', #367, .T. ) ;
#347 = DIRECTION ( 'NONE',  ( 1.000000000000000000, 0.000000000000000000, -3.519227082168491783E-15 ) ) ;
#348 = FACE_OUTER_BOUND ( 'NONE', #42, .T. ) ;
#349 = PERSON_AND_ORGANIZATION_ROLE ( 'creator' ) ;
#350 = VERTEX_POINT ( 'NONE', #236 ) ;
#351 = ORIENTED_EDGE ( 'NONE', *, *, #83, .T. ) ;
#352 = AXIS2_PLACEMENT_3D ( 'NONE', #66, #168, #47 ) ;
#353 = CARTESIAN_POINT ( 'NONE',  ( 1.782110266701180152E-15, 0.000000000000000000, 0.5104166666666659635 ) ) ;
#354 =( NAMED_UNIT ( * ) SI_UNIT ( $, .STERADIAN. ) SOLID_ANGLE_UNIT ( ) );
#355 = DIRECTION ( 'NONE',  ( 1.000000000000000000, 0.000000000000000000, -3.491481338843133750E-15 ) ) ;
#356 = EDGE_CURVE ( 'NONE', #84, #84, #273, .T. ) ;
#357 = ORIENTED_EDGE ( 'NONE', *, *, #369, .T. ) ;
#358 = FACE_OUTER_BOUND ( 'NONE', #27, .T. ) ;
#359 = PERSON_AND_ORGANIZATION ( #297, #213 ) ;
#360 = DIRECTION ( 'NONE',  ( -3.491481338843133355E-15, 0.000000000000000000, -1.000000000000000000 ) ) ;
#361 = CIRCLE ( 'NONE', #15, 0.4540741737109291742 ) ;
#362 = AXIS2_PLACEMENT_3D ( 'NONE', #284, #192, #105 ) ;
#363 = DIRECTION ( 'NONE',  ( 3.491481338843133355E-15, -0.000000000000000000, 1.000000000000000000 ) ) ;
#364 = APPROVAL ( #142, 'UNSPECIFIED' ) ;
#365 = APPROVAL_STATUS ( 'not_yet_approved' ) ;
#366 = CIRCLE ( 'NONE', #352, 0.4929274057836296463 ) ;
#367 = EDGE_LOOP ( 'NONE', ( #98 ) ) ;
#368 = DIRECTION ( 'NONE',  ( 3.491481338843133355E-15, -0.000000000000000000, 1.000000000000000000 ) ) ;
#369 = EDGE_CURVE ( 'NONE', #204, #204, #3, .T. ) ;
#370 = COORDINATED_UNIVERSAL_TIME_OFFSET ( 1, 0, .AHEAD. ) ;
#371 = EDGE_LOOP ( 'NONE', ( #351 ) ) ;
#372 = EDGE_LOOP ( 'NONE', ( #310 ) ) ;
#373 = ADVANCED_FACE ( 'NONE', ( #214 ), #287, .F. ) ;
#374 = AXIS2_PLACEMENT_3D ( 'NONE', #108, #44, #166 ) ;
#375 = CYLINDRICAL_SURFACE ( 'NONE', #362, 0.4929274057836297573 ) ;
#376 = PERSON_AND_ORGANIZATION_ROLE ( 'creator' ) ;
#377 = AXIS2_PLACEMENT_3D ( 'NONE', #227, #225, #72 ) ;
#378 = MECHANICAL_CONTEXT ( 'NONE', #2, 'mechanical' ) ;
#379 = FACE_BOUND ( 'NONE', #133, .T. ) ;
#380 = CARTESIAN_POINT ( 'NONE',  ( -9.572004436096046466E-33, 0.000000000000000000, -2.741531031429665892E-18 ) ) ;
#381 = AXIS2_PLACEMENT_3D ( 'NONE', #88, #383, #347 ) ;
#382 = DIRECTION ( 'NONE',  ( -1.000000000000000000, 0.000000000000000000, 3.491481338843133355E-15 ) ) ;
#383 = DIRECTION ( 'NONE',  ( 3.491481338843133355E-15, -0.000000000000000000, 1.000000000000000000 ) ) ;
#384 = EDGE_LOOP ( 'NONE', ( #308 ) ) ;
#385 = PLANE ( 'NONE',  #74 ) ;
#386 = FACE_OUTER_BOUND ( 'NONE', #276, .T. ) ;
#387 = EDGE_CURVE ( 'NONE', #21, #21, #277, .T. ) ;
#388 = FACE_BOUND ( 'NONE', #140, .T. ) ;
#389 = APPROVAL_PERSON_ORGANIZATION ( #215, #1, #251 ) ;
#390 = PRODUCT_DEFINITION_SHAPE ( 'NONE', 'NONE',  #179 ) ;
#391 = CARTESIAN_POINT ( 'NONE',  ( 0.000000000000000000, 0.000000000000000000, 0.000000000000000000 ) ) ;
#392 = CC_DESIGN_PERSON_AND_ORGANIZATION_ASSIGNMENT ( #260, #124, ( #301 ) ) ;
#393 = CIRCLE ( 'NONE', #102, 1.500000000000000000 ) ;
#394 = CARTESIAN_POINT ( 'NONE',  ( 2.025059176529017031E-14, 0.000000000000000000, 5.799999999999999822 ) ) ;
#395 = EDGE_LOOP ( 'NONE', ( #120 ) ) ;
ENDSEC;
END-ISO-10303-21;
